-------------------------------------------------------------------------------
			     SLITHER - Velvet Revolver
-------------------------------------------------------------------------------
Tabbed by: Salah Salem
Email:[email protected]

Tuning: DADGBe (not standard like the heading)
Yes it's in Drop D not standard
This is pretty rough at the moment, so bear with me. I think the only thing missing is the solo,
so enjoy, and rock on my freaky amigos!!
 
 / slide up 
  slide down
 h hammer-on
 p pull-off
 ~ vibrato
 + harmonic
 x Mute note
 ^ bend note

Intro
e|---------------------------------------------------------------------------|
B|---------------------------------------------------------------------------|
G|---7-7/10-7----------------------------------------------------------------|
D|---7-7/10-7--------repeat--------------------------------------------------|
A|---5-5/-8-5----------------------------------------------------------------|
E|---------------------------------------------------------------------------|

Verse just after intro and all choruses (guitar 1):
e|---------------------------------------------------------------------------|
B|---------------------------------------------------------------------------|
G|---------------------------------------------------------------------------|
D|---0-3-4-0-6-7-0-10-0-6-7-0-5-0-3-4----------------------------------------|
A|---0-3-4-0-6-7-0-10-0-6-7-0-5-0-3-4----------------------------------------|
E|---0-3-4-0-6-7-0-10-0-6-7-0-5-0-3-4----------------------------------------|

(Guitar 2) once:
e|-----------------------8---------------------------------------------------|
B|------------7---9-10-----9-10---8------------------------------------------|
G|-------7-10---7------7--------7---7-10-------------------------------------|
D|---------------------------------------------------------------------------|
A|---------------------------------------------------------------------------|
E|---------------------------------------------------------------------------|

Verse (During Weiland's singing):
(guitar 1)
e|---------------------------------------------------------------------------|
B|---------------------------------------------------------------------------|
G|---------------------------------------------------------------------------|
D|---------------------------------------------------------------------------|
A|---------------------------------------------------------------------------|
E|-----0-3-4-0-6-7-0-10-0-6-7-0-5-0-3-4--------------------------------------|
P.M..........................................................................
(guitar 2)
e|---------------------------------------------------------------------------|
B|---------------------------------------------------------------------------|
G|---------------------^^---------^------------------------------------------|
D|-------0-3-4-0-6-7-0-10-0-6-7-0-5p0-3-4------------------------------------|
A|---------------------------------------------------------------------------|
E|---------------------------------------------------------------------------|







Chorus (guitar 1):
e|---------------------------------------------------------------------------|
B|---------------------------------------------------------------------------|
G|---7--5--5--7--------------------------------------------------------------|
D|---7--5--5--7--------------------------------------------------------------|
A|---5--3--2--5--------------------------------------------------------------|
E|---------------------------------------------------------------------------|

Chorus (guitar 2)
e|---------------------------------------------------------------------------|
B|---------------------------------------------------------------------------|
G|---------------------------------------------------------------------------|
D|--------0-3-4-0-6-7-0-10-0-6-7-0-5-0-3-4-----------------------------------|
A|---------------------------------------------------------------------------|
E|---------------------------------------------------------------------------|

End Chorus with:
Guitar 1:
e|---------------------------------------------------------------------------|
B|---------------------------------------------------------------------------|
G|---------------------------------------------------------------------------|
D|---0-3-4-0-6-7-0-10-0-6-7-0-5-0-3-4----------------------------------------|
A|---0-3-4-0-6-7-0-10-0-6-7-0-5-0-3-4----------------------------------------|
E|---0-3-4-0-6-7-0-10-0-6-7-0-5-0-3-4----------------------------------------|

Guitar 2:
e|-----------------------8---------------------------------------------------|
B|------------7---9-10-----9-10---8------------------------------------------|
G|-------7-10---7------7--------7---7-10-------------------------------------|
D|---------------------------------------------------------------------------|
A|---------------------------------------------------------------------------|
E|---------------------------------------------------------------------------|


Beginning of solo:
e|---------------------------------------------------^^----------------------|
B|----------15-15-15-13-15--17-17-17-15-17--18-18-18-18----------------------|
G|---------------------------------------------------------------------------|
D|---------------------------------------------------------------------------|
A|---------------------------------------------------------------------------|
E|---------------------------------------------------------------------------|

This is my second tab I've ever made, so bear with me. I didn't tab out the solo cause
I'm not that good yet, but if u have it, and any corrections, I'd GREATLY appreciate it.
Rock on and enjoy this awesome song.. Oh yea u got a problem, E-mail me or Shut up.
Word to my home boy Moose and anyone who aspires to be like John Connelly
(if you don't know him, ask about him)!


Текст, аккорды и табулатура для песни "Slither", исполняет "Velvet Revolver".
Используемые в песне аккорды можно найти в разделе Как брать аккорды. Аккорды для шестиструнной гитары. Другие песни можно найти на нашем сайте, воспользовавшись алфавитным указателем вверху страницы.


 
Ошибка в тексте? Выделите ошибку и нажмите Ctrl+Enter