Slither- Velvet Revolver
Tabbed by Ray
Almost all of it accredited to Nero Hans

Drop D tuning

Intro guitar 2:
e|-------------------------|
B|-------------------------|
G|--------(slide)----------|
D|-17-/-/-/-/-/-/-/-/-/--1-|
A|-17-/-/-/-/-/-/-/-/-/--1-|
D|-17-/-/-/-/-/-/-/-/-/--1-|

Intro guitar 1:
e|----------------------------|
B|----------------------------|
G|-7-------5-------4-------2--|
D|-7-------5-------4-------0--|
A|-5-------3-------2-------0--|
D|----------------------------|

Intro part 2 guitar 2
e|--------------------------------------------------------------------|
B|--------------------------------------------------------------------|
G|--------------------------------------------------------------------|
D|--------------------------------------------------------------------|
A|-0-3-4-6-7-0-10-x-6-7-0-5-3-4---------------------------------------|
D|-0-3-4-6-7-0-10-x-6-7-0-5-3-4---------------------------------------|

Guitar 1 that comes in after guitar 2 plays intro 3x
e|--------------8-----------------------------------------------------|
B|---6-7---9-10---9-10---8---6----------------------------------------|
G|-7-----7-------------7---7------------------------------------------|
D|--------------------------------------------------------------------|
A|--------------------------------------------------------------------|
D|--------------------------------------------------------------------|

Verse both guitars: (palm mutted)
e|-----------------------------------|          
B|-----------------------------------|          
G|-----------------------------------|          
D|-----------------------------------|          
A|-----------------------------------|          
D|--0-3-4-0-6-7-0-10-0-7-6-0-5-0-3-4-| 3x then guitar 1 plays..

e|-------------------------------|
B|-------------------------------|
G|---------------5(HB)-----------|
D|-0-3-4-0-6-7-0---7-6-0-5-0-3-4-|
A|-------------------------------|
D|-------------------------------|

Chorus guitar 1
e|---------------------------|
B|---------------------------|
G|-------------5-------------|
D|-0-3-4-6-7-0---6-7-0-5-3-4-|
A|---------------------------|
D|---------------------------|

Chorus guitar 2
e|--------------------|
B|--------------------|
G|--7----5----4----5--|
D|--7----5----4----5--|
A|--5----3----2----3--|
D|--------------------|

Repeat intro part 2, verse, and chorus

Pre solo is the same as intro part 1

Solo: (FB)= Full bend, (HB)= Half bend, (v)= vibrato
E|-----------10--------------10--------------10--------------10-------|
B|-13(FB)(v)----10-13(FB)(v)----10-13(FB)(v)----10-13(FB)(v)----10----|
G|--------------------------------------------------------------------|
D|--------------------------------------------------------------------|
A|--------------------------------------------------------------------|
D|--------------------------------------------------------------------|

E|--------------------------------------------------------------------|
B|-15(FB)(v)----15(FB)(v)-(12)-15(HB)-15(HB)-15(HB)-15(FB15)----------|
G|-----------14-------------------------------------------------------|
D|--------------------------------------------------------------------|
A|--------------------------------------------------------------------|
D|--------------------------------------------------------------------|

E|---------------------15(HB15)-15(HB15)-15(HB)-15-14-15-14(HB)14-12-14-12-|
B|-13----15(HB)(v)-13------------------------------------------------------|
G|----14-------------------------------------------------------------------|
D|-------------------------------------------------------------------------|
A|-------------------------------------------------------------------------|
D|-------------------------------------------------------------------------|

E|----12--------------------------------------------------------------|
B|-15----13-15-12-13----12--------13----------------------------------|
G|-------------------14----12(HB)----12(REL)-10----12-10-------12(HB)-|
D|----------------------------------------------12-------12-10--------|
A|--------------------------------------------------------------------|
D|--------------------------------------------------------------------|

E|-10-----------10----------------------------------------------------|
B|----10-13(HB)----10---------------10-13-----------------------------|
G|--------------------12(HB12HB)(v)-----------------------------------|
D|--------------------------------------------------------------------|
A|--------------------------------------------------------------------|
D|--------------------------------------------------------------------|

E|-------------------------------------------------------------------------|
B|--------10-13--------10-13--------10-13---------------10-13--------10-13-|
G|-12(HB)-------12(HB)-------12(HB)-------12(HB)-12(HB)-------12(HB)-------|
D|-------------------------------------------------------------------------|
A|-------------------------------------------------------------------------|
D|-------------------------------------------------------------------------|

E|--------10--------------10--------|
B|-13(HB)----13-10-----------13-10--|
G|-----------------12(HB)-----------|
D|----------------------------------|
A|----------------------------------|
D|----------------------------------|

E|--------10--------------10--------|
B|-13(HB)----13-10-----------13-10--|
G|-----------------12(HB)-----------|
D|----------------------------------|
A|----------------------------------|
D|----------------------------------|

E|--------10--------------10--------|
B|-13(HB)----13-10-----------13-10--|
G|-----------------12(HB)-----------|
D|----------------------------------|
A|----------------------------------|
D|----------------------------------|

E|--------10--------------10--------13(HB)-13(HB)-13(v)-10--------------|
B|-13(HB)----13-10-----------13-10-------------------------13-10-13(HB)-|
G|-----------------12(HB)-----------------------------------------------|
D|----------------------------------------------------------------------|
A|----------------------------------------------------------------------|
D|----------------------------------------------------------------------|

E|-10------------------------------------------------------------------|
B|----13-10------------------------------------------------------------|
G|----------12(HB)10----12-10------------------------------------------|
D|-------------------12-------12---------------10/12~~~~~~~~~~~~-------|
A|-------------------------------12-11-10-8----------------------------|
D|------------------------------------------10-------------------------|

Repeat chorus both guitars
Chorus part 2 guitar 1:
E|-8-10-x-7-8---------------------------------------------------------|
B|------------x-10-x-9-10---8---6-7-----------------------------------|
G|------------------------7---7-----7---------------------------------|
D|--------------------------------------------------------------------|
A|--------------------------------------------------------------------|
D|--------------------------------------------------------------------|

Chorus part 2 guitar 2:
E|---------------------------------|
B|---------------------------------|
G|---------------------------------|
D|-3-5-x-2-3-x---------------------|
A|-3-5-x-2-3-x-7-0-6-7-0-5-0-3-4-0-|
D|-------------7-0-6-7-0-5-0-3-4-0-|

Repeat Chorus

Solo while singing
E|-12(FB)-10(v)-10-----------10---------------------------------------|
B|-----------------10-13(FB)----10-------------------13(FB)(v)~~~~~---|
G|---------------------------------12(HB12)-10-12-10------------------|
D|--------------------------------------------------------------------|
A|--------------------------------------------------------------------|
D|--------------------------------------------------------------------|

E|----18(FB)-18-17-15-------15----------------------------------------|
B|-15-----------------18-15----18-15----------------------------------|
G|-----------------------------------18-17-15-------17-15-------------|
D|--------------------------------------------17-15-------17-15-------|
A|--------------------------------------------------------------------|
D|--------------------------------------------------------------------|

Repeat intro part 2 and chorus part two

Guitar 1 end on:         Guitar 2 end on:
e|----|                  e|----|
B|-7~-|                  B|----|
G|----|                  G|----|
D|----|                  D|----|
A|----|                  A|-0~-|
D|----|                  D|-0~-|

Enjoy


Текст, аккорды и табулатура для песни "Slither", исполняет "Velvet Revolver".
Используемые в песне аккорды можно найти в разделе Как брать аккорды. Аккорды для шестиструнной гитары. Другие песни можно найти на нашем сайте, воспользовавшись алфавитным указателем вверху страницы.


 
Ошибка в тексте? Выделите ошибку и нажмите Ctrl+Enter