Band:Velvet Revolver
Song:Embrace
C.D.:Controband
Tabbed:Luke([email protected])
Tuning: Standard(EADGBe)

Intro
|----------------------------|
|----0---0---0---0-----------|
|---6---6---6---6------------|
|--7---7---7---7-------------|
|-0---7---6---5--------------|
|----------------------------|

|---------------------------------|
|---------------------------------|
|2-2-x-x-2-2-x-x-2-2-x-x-2-2-x-x--|
|2-2-x-x-2-2-x-x-1-1-x-x-0-0-x-x--|  repeat 3X
|0-0-x-x-0-0-x-x-0-0-x-x-0-0-x-x--|
|---------------------------------|

|---------------------------------|
|---------------------------------|
|---------------------------------|
|-2-2-----------------------------|
|-4-4-------------2h4-0-2p0-------|
|-4-4-xxxxxxxxxxx-----------------|

Verse:

|---------------------------------|
|---------------------------------|
|2-2-x-x-2-2-x-x-2-2-x-x-2-2-x-x--|
|2-2-x-x-2-2-x-x-1-1-x-x-0-0-x-x--|
|0-0-x-x-0-0-x-x-0-0-x-x-0-0-x-x--|
|---------------------------------|

|---------------------------------|
|---------------------------------|
|---------------------------------|
|-2-2-----------------------------|
|-4-4-------------2h4-0-2p0-------|
|-4-4-xxxxxxxxxxx-----------------|

I dreamt you dreamt of me yeah......

|---------------------------------|
|---------------------------------|
|2-2-x-x-2-2-x-x-2-2-x-x-2-2-x-x--|
|2-2-x-x-2-2-x-x-1-1-x-x-0-0-x-x--|
|0-0-x-x-0-0-x-x-0-0-x-x-0-0-x-x--|
|---------------------------------|

|---------------------------------|
|---------------------------------|
|---------------------------------|
|-2-2-----------------------------|
|-4-4-------------2h4-0-2p0-------|
|-4-4-xxxxxxxxxxx-----------------|

And i was all you see yeah.....

|---------------------------------|
|---------------------------------|
|2-2-x-x-2-2-x-x-2-2-x-x-2-2-x-x--|
|2-2-x-x-2-2-x-x-1-1-x-x-0-0-x-x--|
|0-0-x-x-0-0-x-x-0-0-x-x-0-0-x-x--|
|---------------------------------|

|---------------------------------|
|---------------------------------|
|---------------------------------|
|-2-2-----------------------------|
|-4-4-------------2h4-0-2p0-------|
|-4-4-xxxxxxxxxxx-----------------|

Woke up and you were gone.....

|---------------------------------|
|---------------------------------|
|2-2-x-x-2-2-x-x-2-2-x-x-2-2-x-x--|
|2-2-x-x-2-2-x-x-1-1-x-x-0-0-x-x--|
|0-0-x-x-0-0-x-x-0-0-x-x-0-0-x-x--|
|---------------------------------|

Woke up and saw the sun.....     (no guitar in soft part)

|------------------------------------------------|
|------------------------------------------------|
|------------------------------------------------|
|------------------------------------------------|
|-4-4---4-------4-4----4-----4-4---4-----4-4---4-|
|-2-2-x-2-x-x-x-2-2-x--2-xxx-2-2-x-2-xxx-2-2-x-2-|


|----------------------------|
|----0---0---0---0-----------|
|---6---6---6---6------------|
|--7---7---7---7-------------|
|-0---7---6---5--------------|
|----------------------------|

Verse:
|---------------------------------|
|---------------------------------|
|---------------------------------|
|-2-2-----------------------------|
|-4-4-------------2h4-0-2p0-------|
|-4-4-xxxxxxxxxxx-----------------|

5 in the afternoon lyin in my bed....

|---------------------------------|
|---------------------------------|
|2-2-x-x-2-2-x-x-2-2-x-x-2-2-x-x--|
|2-2-x-x-2-2-x-x-1-1-x-x-0-0-x-x--|
|0-0-x-x-0-0-x-x-0-0-x-x-0-0-x-x--|
|---------------------------------|

|---------------------------------|
|---------------------------------|
|---------------------------------|
|-2-2-----------------------------|
|-4-4-------------2h4-0-2p0-------|
|-4-4-xxxxxxxxxxx-----------------|

|---------------------------------|
|---------------------------------|
|2-2-x-x-2-2-x-x-2-2-x-x-2-2-x-x--|
|2-2-x-x-2-2-x-x-1-1-x-x-0-0-x-x--|
|0-0-x-x-0-0-x-x-0-0-x-x-0-0-x-x--|
|---------------------------------|

|---------------------------------|
|---------------------------------|
|---------------------------------|
|-2-2-----------------------------|
|-4-4-------------2h4-0-2p0-------|
|-4-4-xxxxxxxxxxx-----------------|

100 miles per hour thoughts are zooming by....

|---------------------------------|
|---------------------------------|
|2-2-x-x-2-2-x-x-2-2-x-x-2-2-x-x--|
|2-2-x-x-2-2-x-x-1-1-x-x-0-0-x-x--|
|0-0-x-x-0-0-x-x-0-0-x-x-0-0-x-x--|
|---------------------------------|

|---------------------------------|
|---------------------------------|
|---------------------------------|
|-2-2-----------------------------|
|-4-4-------------2h4-0-2p0-------|
|-4-4-xxxxxxxxxxx-----------------|

|---------------------------------|
|---------------------------------|
|2-2-x-x-2-2-x-x-2-2-x-x-2-2-x-x--|
|2-2-x-x-2-2-x-x-1-1-x-x-0-0-x-x--|
|0-0-x-x-0-0-x-x-0-0-x-x-0-0-x-x--|
|---------------------------------|

|-----------------------------------------------|
|-----------------------------------------------|
|-----------------------------------------------|
|-----------------------------------------------|
|-4-4---4-----4-4---4-----4-4---4------4--------|
|-2-2-x-2-xxx-2-2-x-2-xxx-2-2-x-2-xxx--2--------|
               repeat all of this all of this    


Текст, аккорды и табулатура для песни "Embrace", исполняет "Velvet Revolver".
Используемые в песне аккорды можно найти в разделе Как брать аккорды. Аккорды для шестиструнной гитары. Другие песни можно найти на нашем сайте, воспользовавшись алфавитным указателем вверху страницы.


 
Ошибка в тексте? Выделите ошибку и нажмите Ctrl+Enter