Band: Velvet Revolver
Song: Do It For The Kids
Album: Contraband
Tabbed by: Kabir
[email protected]


Gtr I (A# D# G# D B# A#) - Slash
Gtr 2 (    ) - Dave Kushner

 4/4
  Gtr I

::Intro::

too fast I'm out of luck and I don't even give a ***....

::Riff A::  
|----------------------------------|
|----------------------------------|
|----------------------------------|
|-7-7-5-6-7-7-5-6-7-7--8--10--8----|
|-7-7-5-6-7-7-5-6-7-7--8--10--8----|
|----------------------------------|

::Small riff Slash plays::
|-----------------------------------------|
|-------7r=7--7-5-7-3-5-3--2p-3-2p-3------|
|-2pb4-------------------------------2----|
|-----------------------------------------|
|-----------------------------------------|
|-----------------------------------------|

::Verse 1 played with Riff A::

I wanna be your mainchild
Lets all go-it hog wild
She said ill see you later
I always gravitate to her
Lets all meet at the station
No heavy concentration
We could all hook up there
The kids are all right there

::Chorus::

A                     C 
Should we go out later
A                     C     B C
Showtime for strangers

::Verse 2 - play Riff A all the way muted::

Dontcha give a *** anymore now
She's givin up on you now
Do it for the kids they say
It ain't about you anyway

::Verse 3 - same as other verses::

I say we're all grown up now
And sex ain't so safe now
It's all in the groove they say
Doesn't matter anyway
::chorus::

A                     C 
Should we go out later
A                     C     B C
Showtime for strangers


:: Bridge - Play Riff B::

::Riff B::

|---------------------------|
|---------------------------|
|---------------------------|
|-10------------------------|
|--8----10----8----4---7----|
|--------8----6----2---5----|

Keep me runnin' like a deer in the headlights
All for nothing I thought
Just the ransom I had bought

About the day I tried to tame her
Never tried to blame her     
                            B C
Just a game that I had bought


::SOLO

|------------------------------------------5-----5---5---5----------|
|-----------------------------------5--5b6---5-7---5---7---5-3p-5---|
|-2--4b6--2p-4-2----------------------------------------------------|
|-----------------2-4-2-2-------------------------------------------|
|-------------------------4--2--0-----------------------------------|
|-------------------------------------------------------------------|


   
|--------------|
|-/2-3p-2------|
|---------0----|
|--------------|
|--------------|
|--------------|


::verse 4 -  as above verses::

Let's all meet at the station
No heavy concentration
The kids are all alright there

::Chorus - same chords as others::


Should we go (should we go) out later
(Went too fast I'm out of luck and I don't even give a ***)
Showtime (showtime) for strangers
(Went too fast I'm out of luck and I don't even give a ***)

::Slash plays this while Scott goes on and on::


TP TP TP TP TP TP TP TP TP TP TP TP TP TP TP TP TP TP TP TP TP TP TP TP TP TP TP TP TP TP TP
   
|-------------------------------------------------------------------------------------------------|
|-15-15-15-15-17-17-17-19-19-20-20-20-19-19-19-17-17-17-13-13-13S10-10-10-10-15-15-15-17-17-17----|
|-------------------------------------------------------------------------------------------------|
|-------------------------------------------------------------------------------------------------|
|-------------------------------------------------------------------------------------------------|
|-------------------------------------------------------------------------------------------------|

::Outro by Slash::

~~~                                                             ~~~~
|-----------------------------|--------------------------------------|
|-15-12p-13p-12----12p-13p-12-|-----12-13-12-------------------------|
|---------------14------------|-14-----------14-12-11-12-11----------|
|-----------------------------|-----------------------------14-12----|
|-----------------------------|--------------------------------------|
|-----------------------------|--------------------------------------|


Текст, аккорды и табулатура для песни "Do It For The Kids", исполняет "Velvet Revolver".
Используемые в песне аккорды можно найти в разделе Как брать аккорды. Аккорды для шестиструнной гитары. Другие песни можно найти на нашем сайте, воспользовавшись алфавитным указателем вверху страницы.


 
Ошибка в тексте? Выделите ошибку и нажмите Ctrl+Enter