Gtr I (E A D G B E) - 'Steel-string Acoustic' 
Gtr II (E A D G B E) - 'Over-driven Electric' 
 
 Q=160 
3/4 
 
   Gtr I
||-----------|-----------------|-----------------|------------------||
||o----------|------2---2---2--|------2---2---2--|------2---2---2--o||
||-----------|------2---2---2--|------2---2---2--|------2---2---2---||
||-----------|-----(2)-(2)-(2)-|-----(2)-(2)-(2)-|-----(2)-(2)-(2)--||
||o----------|-0---------------|-----------------|-0---------------o||
||--0--2--4--|-----------------|-0---------------|------------------||
 
 
|----------|-----------------|----------------|------------------|
|----------|------2---2---2--|----------------|------2---2---2---|
|----------|------2---2---2--|----------------|------2---2---2---|
|----------|-----(2)-(2)-(2)-|-2h4-(4)-(4)-2--|-----(2)-(2)-(2)--|
|----------|-0---------------|----------------|-0----------------|
|-0--2--4--|-----------------|----------------|------------------|
 
 
|-----------------|-----------------|-----------|-----(2)-(2)-(2)--|
|------2---2---2--|------2---2---2--|-----------|------3---3---3---|
|------2---2---2--|------2---2---2--|-----------|------2---2---2---|
|-----(2)-(2)-(2)-|-----(2)-(2)-(2)-|-2h4-2-----|-0----------------|
|-----------------|-0---------------|--------4--|------------------|
|-0---------------|-----------------|-----------|------------------|
 
 
|-----(2)-(2)-(2)-|-----(2)-(2)-(2)-|-----(2)-(2)-(2)-|-^2---(2)-(2)-(2)--|
|------3---3---3--|------3---3---3--|------3---3---3--|-^3----3---3---3---|
|------2---2---2--|------2---2---2--|------2---2---2--|-^2----2---2---2---|
|-----------------|-0---------------|-----------------|-^0----------------|
|-0---------------|-----------------|-0---------------|-------------------|
|-----------------|-----------------|-----------------|-------------------|
 
 
|-----------|-----------------|-----------------|------------------|
|-----------|------2---2---2--|------2---2---2--|------2---2---2---|
|-2h4-2-----|------2---2---2--|------2---2---2--|------2---2---2---|
|--------4--|-2---(2)-(2)-(2)-|-----(2)-(2)-(2)-|-----(2)-(2)-(2)--|
|-----------|-----------------|-----------------|-0----------------|
|-----------|-----------------|-0---------------|------------------|
 
 
|-----------|-----------------|-----------------|------------------|
|-----------|------0---0---0--|------0---0---0--|------0---0---0---|
|-----------|------1---1---1--|------1---1---1--|------1---1---1---|
|-2h4-2-----|-----(2)-(2)-(2)-|-----(2)-(2)-(2)-|-----(2)-(2)-(2)--|
|--------4--|-----------------|-2---------------|------------------|
|-----------|-0---------------|-----------------|-0----------------|
 
 
|----------|-----------------|-----------------|------------------|
|----------|------2---2---2--|------2---2---2--|------2---2---2---|
|----------|------2---2---2--|------2---2---2--|------2---2---2---|
|----------|-----(2)-(2)-(2)-|-----(2)-(2)-(2)-|-----(2)-(2)-(2)--|
|----------|-0---------------|-----------------|-0----------------|
|-0--2--4--|-----------------|-0---------------|------------------|
 
 
|----------|-----(2)-(2)-(2)-|-----(2)-(2)-(2)-|-----(2)-(2)-(2)--|
|----------|------3---3---3--|------3---3---3--|------3---3---3---|
|----------|------2---2---2--|------2---2---2--|------2---2---2---|
|----------|-0---------------|-----------------|-0----------------|
|-0--2--4--|-----------------|-0---------------|------------------|
|----------|-----------------|-----------------|------------------|
 
 
|-----(2)-(2)-(2)-|-^2---(2)-(2)-(2)-|-----------|------------------|
|------3---3---3--|-^3----3---3---3--|-----------|------2---2---2---|
|------2---2---2--|-^2----2---2---2--|-2h4-2-----|------2---2---2---|
|-----------------|-^0---------------|--------4--|-2---(2)-(2)-(2)--|
|-0---------------|------------------|-----------|------------------|
|-----------------|------------------|-----------|------------------|
 
 
|-----------------|-----------------|----------|------------------|
|------2---2---2--|------2---2---2--|----------|------2---2---2---|
|------2---2---2--|-2----2---2---2--|----------|------2---2---2---|
|-----(2)-(2)-(2)-|-2---(2)-(2)-(2)-|----------|-----(2)-(2)-(2)--|
|-----------------|-0---------------|----------|-0----------------|
|-0---------------|-----------------|-0--2--4--|------------------|
 
 
||------------------|-----------------|----------|-----------------|
||o------2---2---2--|------2---2---2--|----------|------2---2---2--|
||-------2---2---2--|------2---2---2--|----------|------2---2---2--|
||------(2)-(2)-(2)-|-----(2)-(2)-(2)-|----------|-----(2)-(2)-(2)-|
||o-----------------|-0---------------|-------2--|-0---------------|
||--0---------------|-----------------|-0--3-----|-----------------|
|
|  Gtr II
|                                  ~
||------------------|-----------------|----------|-----------------|
||o-----------------|-----------------|----------|-----------------|
||------------------|-----------------|----------|-----------------|
||------------------|-----------------|----------|-----------------|
||o-----------------|-----------------|----------|-0---------------|
||------------------|-----------------|----------|-----------------|
 
 
|-------------------|-----------------------|------------|------------------|
|--------2---2---2--|------2-----2---2------|------------|------2---2---2--o|
|--------2---2---2--|------2-----2---2------|------------|------2---2---2---|
|-------(2)-(2)-(2)-|-----(2)---(2)-(2)-----|------------|-----(2)-(2)-(2)--|
|-------------------|-0---------------------|---------2--|-0---------------o|
|--0----------------|-----------------------|--0---3-----|------------------||
|
| ~~~                ~~~~~~~~~~~~~~~~~~~~      ~
|-------------------|-----------------------|------------|------------------|
|-------------------|-----------------------|------------|-----------------o|
|-------------------|-----------------------|------------|------------------|
|-------------------|-----------------------|------------|------------------|
|-(0)---------------|-3-------0---------(0)-|-(0)-----7--|-6---------------o|
|-------------------|-----------------------|------------|------------------||
 
 
|-------------------|-------------------|----------|------------------|
|--------2---2---2--|--------2---2---2--|----------|------2---2---2---|
|--------2---2---2--|--------2---2---2--|----------|------2---2---2---|
|-------(2)-(2)-(2)-|-------(2)-(2)-(2)-|----------|-----(2)-(2)-(2)--|
|-------------------|--0----------------|-------2--|-0----------------|
|--0----------------|-------------------|-0--3-----|------------------|
|
|               >
| ~~~~~~~~~~~~~~~~~~~~~~~                  ~
|-------------------|-------------------|----------|------------------|
|-------------------|-------------------|----------|------------------|
|-------------------|-------------------|----------|------------------|
|-------------------|-------------------|----------|------------------|
|-(6)---------------|-(6)---------------|-------2--|-0----------------|
|-------------------|-------------------|-0--3-----|------------------|
 
 
|-----------------|-----------------|----------|------------------|
|------2---2---2--|------2---2---2--|----------|------2---2---2---|
|------2---2---2--|------2---2---2--|----------|------2---2---2---|
|-----(2)-(2)-(2)-|-----(2)-(2)-(2)-|----------|-----(2)-(2)-(2)--|
|-----------------|-0---------------|-------2--|-0----------------|
|-0---------------|-----------------|-0--3-----|------------------|
|
| ~~~~~~~~~~~~~~~~~~~~                  ~
|-----------------|-----------------|----------|------------------|
|-----------------|-----------------|----------|------------------|
|-----------------|-----------------|----------|------------------|
|-----------------|-----------------|----------|------------------|
|-3---------------|-0---------------|-3--0--7--|-6----------------|
|-----------------|-----------------|----------|------------------|
 
 
|-------------------|-------------------|----------|------------------|
|--------2---2---2--|--------2---2---2--|----------|------2---2---2---|
|--------2---2---2--|--------2---2---2--|----------|------2---2---2---|
|-------(2)-(2)-(2)-|-------(2)-(2)-(2)-|----------|-----(2)-(2)-(2)--|
|-------------------|--0----------------|-------2--|-0----------------|
|--0----------------|-------------------|-0--3-----|------------------|
|
|               >
| ~~~~~~~~~~~~~~~~~~~~~~~                  ~
|-------------------|-------------------|----------|------------------|
|-------------------|-------------------|----------|------------------|
|-------------------|-------------------|----------|------------------|
|-------------------|-------------------|----------|------------------|
|-(6)---------------|-(6)---------------|----0--7--|-5----------------|
|-------------------|-------------------|-2--------|------------------|
 
 
|-------------------|-------------------|----------|------------------|
|--------2---2---2--|--------2---2---2--|----------|------2---2---2---|
|--------2---2---2--|--------2---2---2--|----------|------2---2---2---|
|-------(2)-(2)-(2)-|-------(2)-(2)-(2)-|----------|-----(2)-(2)-(2)--|
|-------------------|--0----------------|-------2--|-0----------------|
|--0----------------|-------------------|-0--3-----|------------------|
|
|               >
| ~~~~~~~~~~~~~~~~~~~~~~~                  ~
|-------------------|-------------------|----------|------------------|
|-------------------|-------------------|----------|------------------|
|-------------------|-------------------|----------|------------------|
|-------------------|-------------------|-3--0--7--|-5----------------|
|-(5)---------------|-(5)---------------|----------|------------------|
|-------------------|-------------------|----------|------------------|
 
 
|-------------------|-------------------|----------|------------------|
|--------2---2---2--|--------2---2---2--|----------|------2---2---2---|
|--------2---2---2--|--------2---2---2--|----------|------2---2---2---|
|-------(2)-(2)-(2)-|-------(2)-(2)-(2)-|----------|-----(2)-(2)-(2)--|
|-------------------|--0----------------|-------2--|-0----------------|
|--0----------------|-------------------|-0--3-----|------------------|
|
|               >
| ~~~~~~~~~~~~~~~~~~~~~~~                  ~
|-------------------|-------------------|----------|------------------|
|-------------------|-------------------|----------|------------------|
|-------------------|-------------------|----------|------------------|
|-(5)---------------|-(5)---------------|----------|------------------|
|-------------------|-------------------|-------2--|-0----------------|
|-------------------|-------------------|-0--3-----|------------------|
 
 
|-----------------|-----------------|----------|------------------|
|------2---2---2--|------2---2---2--|----------|------2---2---2---|
|------2---2---2--|------2---2---2--|----------|------2---2---2---|
|-----(2)-(2)-(2)-|-----(2)-(2)-(2)-|----------|-----(2)-(2)-(2)--|
|-----------------|-0---------------|-------2--|-0----------------|
|-0---------------|-----------------|-0--3-----|------------------|
|
| ~~~~~~~~~~~~~~~~~~~~                  ~
|-----------------|-----------------|----------|------------------|
|-----------------|-----------------|----------|------------------|
|-----------------|-----------------|----------|------------------|
|-----------------|-----------------|----------|------------------|
|-3---------------|-0---------------|-3--0--7--|-6----------------|
|-----------------|-----------------|----------|------------------|
 
 
|-------------------|-------------------|----------|------------------|
|--------2---2---2--|--------2---2---2--|----------|------2---2---2---|
|--------2---2---2--|--------2---2---2--|----------|------2---2---2---|
|-------(2)-(2)-(2)-|-------(2)-(2)-(2)-|----------|-----(2)-(2)-(2)--|
|-------------------|--0----------------|-------2--|-0----------------|
|--0----------------|-------------------|-0--3-----|------------------|
|
|               >
| ~~~~~~~~~~~~~~~~~~~~~~~                  ~
|-------------------|-------------------|----------|------------------|
|-------------------|-------------------|----------|------------------|
|-------------------|-------------------|----------|------------------|
|-------------------|-------------------|----------|------------------|
|-(6)---------------|-(6)---------------|----0--7--|-5----------------|
|-------------------|-------------------|-2--------|------------------|
 
 
|-----------------|-----------------|----------|------------------|
|------2---2---2--|------2---2---2--|----------|------2---2---2---|
|------2---2---2--|------2---2---2--|----------|------2---2---2---|
|-----(2)-(2)-(2)-|-----(2)-(2)-(2)-|----------|-----(2)-(2)-(2)--|
|-----------------|-0---------------|-------2--|-0----------------|
|-0---------------|-----------------|-0--3-----|------------------|
|
| ~~~~~~~~~~~~~~~~~~~~                  ~
|-----------------|-----------------|----------|------------------|
|-----------------|-----------------|----------|------------------|
|-----------------|-----------------|----------|------------------|
|-3---------------|-0---------------|-3--0--7--|-6----------------|
|-----------------|-----------------|----------|------------------|
|-----------------|-----------------|----------|------------------|
 
 
|-------------------|-------------------|----------|------------------|
|--------2---2---2--|--------2---2---2--|----------|------2---2---2---|
|--------2---2---2--|--------2---2---2--|----------|------2---2---2---|
|-------(2)-(2)-(2)-|-------(2)-(2)-(2)-|----------|-----(2)-(2)-(2)--|
|-------------------|--0----------------|-------2--|-0----------------|
|--0----------------|-------------------|-0--3-----|------------------|
|
|               >
| ~~~~~~~~~~~~~~~~~~~~~~~                  ~
|-------------------|-------------------|----------|------------------|
|-------------------|-------------------|----------|------------------|
|-------------------|-------------------|----------|------------------|
|-(6)---------------|-(6)---------------|----------|------------------|
|-------------------|-------------------|-------2--|-0----------------|
|-------------------|-------------------|-0--3-----|------------------|
 
 
||--------------------|-------------------|----------|------------------||
||o--------2---2---2--|--------2---2---2--|----------|------2---2---2--o||
||---------2---2---2--|--------2---2---2--|----------|------2---2---2---||
||--------(2)-(2)-(2)-|-------(2)-(2)-(2)-|----------|-----(2)-(2)-(2)--||
||o-------------------|--0----------------|-------2--|-0---------------o||
||---0----------------|-------------------|-0--3-----|------------------||
|
|                >
|   ~~~~~~~~~~~~~~~~~~~~~~~                  ~
||--------------------|-------------------|----------|------------------||
||o-------------------|-------------------|----------|-----------------o||
||--------------------|-------------------|----------|------------------||
||--------------------|-------------------|----------|------------------||
||o-------------------|-------------------|-------2--|-0---------------o||
||--(0)---------------|-(0)---------------|-0--3-----|------------------||
 
 
|-----------------|-----------------|----------|------------------|
|------2---2---2--|------2---2---2--|----------|------2---2---2---|
|------2---2---2--|------2---2---2--|----------|------2---2---2---|
|-----(2)-(2)-(2)-|-----(2)-(2)-(2)-|----------|-----(2)-(2)-(2)--|
|-----------------|-0---------------|-------2--|-0----------------|
|-0---------------|-----------------|-0--3-----|------------------|
|
| ~~~~~~~~~~~~~~~~~~~~                  ~
|-----------------|-----------------|----------|------------------|
|-----------------|-----------------|----------|------------------|
|-----------------|-----------------|----------|------------------|
|-----------------|-----------------|----------|------------------|
|-3---------------|-0---------------|-3--0--7--|-6----------------|
|-----------------|-----------------|----------|------------------|
 
 
|-------------------|-------------------|----------|------------------|
|--------2---2---2--|--------2---2---2--|----------|------2---2---2---|
|--------2---2---2--|--------2---2---2--|----------|------2---2---2---|
|-------(2)-(2)-(2)-|-------(2)-(2)-(2)-|----------|-----(2)-(2)-(2)--|
|-------------------|--0----------------|-------2--|-0----------------|
|--0----------------|-------------------|-0--3-----|------------------|
|
|               >
| ~~~~~~~~~~~~~~~~~~~~~~~                  ~
|-------------------|-------------------|----------|------------------|
|-------------------|-------------------|----------|------------------|
|-------------------|-------------------|----------|------------------|
|-------------------|-------------------|----------|------------------|
|-(6)---------------|-(6)---------------|----0--7--|-5----------------|
|-------------------|-------------------|-2--------|------------------|
 
 
|-------------------|-------------------|----------|------------------|
|--------2---2---2--|--------2---2---2--|----------|------2---2---2---|
|--------2---2---2--|--------2---2---2--|----------|------2---2---2---|
|-------(2)-(2)-(2)-|-------(2)-(2)-(2)-|----------|-----(2)-(2)-(2)--|
|-------------------|--0----------------|-------2--|-0----------------|
|--0----------------|-------------------|-0--3-----|------------------|
|
|               >
| ~~~~~~~~~~~~~~~~~~~~~~~                  ~
|-------------------|-------------------|----------|------------------|
|-------------------|-------------------|----------|------------------|
|-------------------|-------------------|----------|------------------|
|-------------------|-------------------|-3--0--7--|-5----------------|
|-(5)---------------|-(5)---------------|----------|------------------|
|-------------------|-------------------|----------|------------------|
 
 
|-------------------|-------------------|----------|------------------|
|--------2---2---2--|--------2---2---2--|----------|------2---2---2---|
|--------2---2---2--|--------2---2---2--|----------|------2---2---2---|
|-------(2)-(2)-(2)-|-------(2)-(2)-(2)-|----------|-----(2)-(2)-(2)--|
|-------------------|--0----------------|-------2--|-0----------------|
|--0----------------|-------------------|-0--3-----|------------------|
|
|               >
| ~~~~~~~~~~~~~~~~~~~~~~~                  ~
|-------------------|-------------------|----------|------------------|
|-------------------|-------------------|----------|------------------|
|-------------------|-------------------|----------|------------------|
|-(5)---------------|-(5)---------------|----------|------------------|
|-------------------|-------------------|-------2--|-0----------------|
|-------------------|-------------------|-0--3-----|------------------|
 
 
|-----------------|-----------------|----------|------------------|
|------2---2---2--|------2---2---2--|----------|------2---2---2---|
|------2---2---2--|------2---2---2--|----------|------2---2---2---|
|-----(2)-(2)-(2)-|-----(2)-(2)-(2)-|----------|-----(2)-(2)-(2)--|
|-----------------|-0---------------|-------2--|-0----------------|
|-0---------------|-----------------|-0--3-----|------------------|
|
| ~~~~~~~~~~~~~~~~~~~~                  ~
|-----------------|-----------------|----------|------------------|
|-----------------|-----------------|----------|------------------|
|-----------------|-----------------|----------|------------------|
|-----------------|-----------------|----------|------------------|
|-3---------------|-0---------------|-3--0--7--|-6----------------|
|-----------------|-----------------|----------|------------------|
 
 
|-------------------|-------------------|----------|------------------|
|--------2---2---2--|--------2---2---2--|----------|------2---2---2---|
|--------2---2---2--|--------2---2---2--|----------|------2---2---2---|
|-------(2)-(2)-(2)-|-------(2)-(2)-(2)-|----------|-----(2)-(2)-(2)--|
|-------------------|--0----------------|-------2--|-0----------------|
|--0----------------|-------------------|-0--3-----|------------------|
|
|               >
| ~~~~~~~~~~~~~~~~~~~~~~~                  ~
|-------------------|-------------------|----------|------------------|
|-------------------|-------------------|----------|------------------|
|-------------------|-------------------|----------|------------------|
|-------------------|-------------------|----------|------------------|
|-(6)---------------|-(6)---------------|----0--7--|-5----------------|
|-------------------|-------------------|-2--------|------------------|
 
 
|-----------------|-----------------|----------|------------------|
|------2---2---2--|------2---2---2--|----------|------2---2---2---|
|------2---2---2--|------2---2---2--|----------|------2---2---2---|
|-----(2)-(2)-(2)-|-----(2)-(2)-(2)-|----------|-----(2)-(2)-(2)--|
|-----------------|-0---------------|-------2--|-0----------------|
|-0---------------|-----------------|-0--3-----|------------------|
|
| ~~~~~~~~~~~~~~~~~~~~                  ~
|-----------------|-----------------|----------|------------------|
|-----------------|-----------------|----------|------------------|
|-----------------|-----------------|----------|------------------|
|-3---------------|-0---------------|-3--0--7--|-6----------------|
|-----------------|-----------------|----------|------------------|
|-----------------|-----------------|----------|------------------|
 
 
                                                 5x
||--------------------|-------------------|----------|------------------||
||o--------2---2---2--|--------2---2---2--|----------|------2---2---2--o||
||---------2---2---2--|--------2---2---2--|----------|------2---2---2---||
||--------(2)-(2)-(2)-|-------(2)-(2)-(2)-|----------|-----(2)-(2)-(2)--||
||o-------------------|--0----------------|-------2--|-0---------------o||
||---0----------------|-------------------|-0--3-----|------------------||
|
|                >
|   ~~~~~~~~~~~~~~~~~~~~~~~                  ~
|                                                5x
||--------------------|-------------------|----------|------------------||
||o-------------------|-------------------|----------|-----------------o||
||--------------------|-------------------|----------|------------------||
||--------------------|-------------------|----------|------------------||
||o-------------------|-------------------|-------2--|-0---------------o||
||--(0)---------------|-(0)---------------|-0--3-----|------------------||
 
 
|-----------------|-----------------|----------|------|
|------2---2---2--|------2---2---2--|----------|------|
|------2---2---2--|------2---2---2--|----------|------|
|-----(2)-(2)-(2)-|-----(2)-(2)-(2)-|----------|------|
|-----------------|-0---------------|-------2--|-0----|
|-0---------------|-----------------|-0--3-----|------|
|
|                                >
| ~~~~~~~~~~~~~~~~~~~~                  ~
|-----------------|-----------------|----------|------|
|-----------------|-----------------|----------|------|
|-----------------|-----------------|----------|------|
|-----------------|-----------------|----------|------|
|-3---------------|-0---------------|-3--0--7--|-6----|
|-----------------|-----------------|----------|------|


Текст, аккорды и табулатура для песни "More Gun (OST Team Fortress 2)", исполняет "Vavle Studio Orchestra".
Используемые в песне аккорды можно найти в разделе Как брать аккорды. Аккорды для шестиструнной гитары. Другие песни можно найти на нашем сайте, воспользовавшись алфавитным указателем вверху страницы.


 
Ошибка в тексте? Выделите ошибку и нажмите Ctrl+Enter