THE VANDALS-MY GIRLFRIENDS DEAD

INTRO PM
E----------------------------------------
B----------------------------------------
G----------------------------------------
D-----3---3---3---3---3---3---3---3------
A---1---1---1---1---1---1---1---1--------
E----------------------------------------

VERSE 1 PM
E-----------------------------------------------------------------------------------
B-----------------------------------------------------------------------------------
G-----------------------------------------------------------------------------------
D---33333333-------------------7777777-88888888-1010101010101010-3333333233333333---
A---11111111-33333333-55555555-5555555-66666666-8-8-8-8-8-8-8-8--1111111011111111---
E------------11111111-33333333------------------------------------------------------

CHORUS 1
E--------------------------------------------------------------------------------------
B--------------------------------------------------------------------------------------
G-----------------------------------------------------------------------------------3~-
D---888888888-1010101010101010-88888888-1010101010101010-88888888-1010101010101010--3~-
A---666666666-8-8-8-8-8-8-8-8--66666666-8-8-8-8-8-8-8-8--66666666-8-8-8-8-8-8-8-8---1~-
E--------------------------------------------------------------------------------------
    ******************************************************************************

VERSE 2
E--------------------------------------------------------------------------------------
B--------------------------------------------------------------------------------------
G---2/3333333-------------------77777777-88888888-1010101010101010-33333333/2/33333333-
D---2/3333333-33333333-55555555-77777777-88888888-1010101010101010-33333333/2/33333333-
A---0/1111111-33333333-55555555-55555555-66666666-8-8-8-8-8-8-8-8--11111111/0/11111111-
E-------------11111111-33333333--------------------------------------------------------

CHORUS 2
E----------------------------------------------------------
B----------------------------------------------------------
G---------------------------------88-77-55-33--------------
D---66-55-33-11-00-1-3-1-0-(x3)---------------66-55-33-1---
A----------------------------------------------------------
E----------------------------------------------------------

 FINAL CHORUS
E--------------------------------------
B--------------------------------------
G---------------------------------3~---
D---66-55-33-11-00-1-3-1-0-(x3)---3~---
A---------------------------------1~---
E--------------------------------------


Текст, аккорды и табулатура для песни "My Girlfriends Dead", исполняет "Vandals".
Используемые в песне аккорды можно найти в разделе Как брать аккорды. Аккорды для шестиструнной гитары. Другие песни можно найти на нашем сайте, воспользовавшись алфавитным указателем вверху страницы.


 
Ошибка в тексте? Выделите ошибку и нажмите Ctrl+Enter