I'VE GOT AN APE DRAPE by The Vandals Album: Hitler Bad, Vandals Good
I just took two tabs and mixed them together to get a more accurate tab
:
# chorus # *=play 8X
G-------------------------------------------------------------------------|
D------020---------------------020---02--0--------------------------------|
A--333-----3--02-----------333-----3---------------020------0-23---2*-023-|
E------------------3---------------------------333------3--3--------------|
:
# verse # X2 *=play 12X                     >
G------------------------------------------->
D-------2*--3*--2*------2---2-3------------->
A---3*--------------3-5---3-----5-3-5------->
E---------------------------------------3>-->
>verse
>--------*---*---*---------------------------------|
>----*--2---3---2-----33--22----3--2---3---2-------|
>---3-------------------55---33---5--3---5---5---3-|
>--------------------------------------------------|
:
then play chorus, verseX2, chorusX2
:
# bridge #                                                    >
G------------------------------------------------------------->
D-------------------------------------------------8-9-11-9-8-->
A-------7-8-10-8-7-----------7-8-10-8-7------8-10------------->
E-8--10----------------8--10---------------------------------->
>bridge                					   >
>---------------------------------------------------------->
>---------------------------------------------------------->
>-------7-8-10-8-7-----------2-3-5-3-2---------7-8-10-8-7-->
>-8--10-----------------3--5-------------8--10------------->
>bridge
>---------------------------------------------------------------------|
>---------------------------------------------------------------------|
>--8----8--------10--7--8------7-----------10--7--8------7--------|
>------------------------------10-----8--10--------------10-----8--10-|
:
then play chorus, verseX2, chorusX8
:
# outro # *=slap
G---------------------|
D----*----------------|
A---10--------10//--|
E---------------------|
:
I've got hockey hair.
Tabbed by Chris Snyder ([email protected]) and Justin Slater ([email protected])
Compiled by Josh Wright ([email protected])


Текст, аккорды и табулатура для песни "Ive Got An Ape Drape", исполняет "Vandals".
Используемые в песне аккорды можно найти в разделе Как брать аккорды. Аккорды для шестиструнной гитары. Другие песни можно найти на нашем сайте, воспользовавшись алфавитным указателем вверху страницы.


 
Ошибка в тексте? Выделите ошибку и нажмите Ctrl+Enter