The lower D,A, and E string are all thumb work...

   G                                                         C
E --------------------------------------------------------0-----|
B ----0-1h--0--------0-----1---3h---1--0---0-----1---3h------1--|
G --0-----------0-----------------------------------------------|
D ---0---0------------------------------------------------------|
A -----------continue bass line --                        ---3--|
E -3---3--------------------------                        ------|
   If I nee-ded you, would you come to me, would you come to me

          D
E -----------------------|
B -----------------------|
G ------0----------------|
D -2--2h---0-------------|
A -------------0---------|
E -----------------0-----|

       and ease my pain?

If you needed me
I would come to you
I'd swim the seas
for to ease your pain

In the night forlorn
the morning's born
and the morning shines
with the lights of love
You will miss sunrise
if you close your eyes
that would break
my heart in two

The lady's with me now
since I showed her how
to lay her lily
hand in mine
Loop and Lil agree
she's a sight to see
and a treasure for
the poor to find

#--------------------------------------------------------------#


Текст, аккорды и табулатура для песни "If I Needed You", исполняет "Van Zandt Townes".
Используемые в песне аккорды можно найти в разделе Как брать аккорды. Аккорды для шестиструнной гитары. Другие песни можно найти на нашем сайте, воспользовавшись алфавитным указателем вверху страницы.


Слушать онлайн If I Needed You


Townes Van ZandtIf I Needed You на Яндекс.Музыке


 
Ошибка в тексте? Выделите ошибку и нажмите Ctrl+Enter