You Really Got Me


                                                                       The Kinks
Guitar - E. Van Halen


D#||-------------------|-------------------------|-------------------------|
A#||-------------------|------------------x-x----|------------------x-x----|
F#||-------------------|--2--2-----2------x-x----|--2--2-----2------x-x----|
C#||-------------------|--2--2-----2------x-x----|--2--2-----2------x-x----|
G#||-------------------|--0--0-----0------x-x----|--0--0-----0------x-x----|
D#||----------------3--|--------3-------------3--|--------3-------------3--|

-------------------------|------------------------|--------------------------|
------------------x-x----|------------------------|--------------------------|
--2--2-----2------x-x----|--2--2-----2----2/------|--2--2-----2--x--x--x-----|
--2--2-----2------x-x----|--2--2-----2----2/------|--2--2-----2--x--x--x-----|
--0--0-----0------x-x----|--0--0-----0------------|--0--0-----0--------------|
--------3-------------3--|--------3------------3--|--------3--------------3--|

--------------------------|--------------------------|------------------------|
--------------------------|--------------------------|------------------------|
--2--2-----2--x--x--x-----|--2--2-----2--x--x--x-----|--2--2------------------|
--2--2-----2--x--x--x-----|--2--2-----2--x--x--x-----|--2--2------------------|
--0--0-----0--------------|--0--0-----0--------------|--0--0------------------|
--------3--------------3--|--------3--------------3--|--------3b-3~----15/----|

-----------------------|------------------------|-----------------------|
-----------------------|------------------------|-----------------------|
--2--2-----2-----------|--2--2-----2------------|--2--2-----2----4r-----|
--2--2-----2-----------|--2--2-----2------x-----|--2--2-----2-----------|
--0--0-----0-----------|--0--0-----0------x-----|--0--0-----0-----------|
--------3-----------3--|--------3------------3--|--------3--------------|

--------------------------|------------------------|------------------------|
--------------------------|------------------------|------------------------|
--4b-2--------------------|--2--2-----2------------|--2--2-----2------------|
--------3b-3--2-----------|--2--2-----2------x-----|--2--2-----2------x-----|
-----------------3b-3--2--|--0--0-----0------x-----|--0--0-----0------x-----|
--------------------------|--------3------------3--|--------3------------3--|

-----------------------|--------------------------|------------------------|
-----------------------|--------------------------|------------------------|
--2--2-----2----7r-----|--5--7b-------------------|--4--4-----4------------|
--2--2-----2-----------|--------5b-7--------------|--4--4-----4------x-----|
--0--0-----0-----------|--------------5b-7--3/-5--|--2--2--0--2------x--0--|
--------3--------------|--------------------------|------------------------|

-----------------------|------------------------|--------------------------|
-----------------------|------------------------|--------------------------|
--4--4-----4-----------|------------------x-----|--------------------------|
--4--4--4--4--------4--|--4--4--4--4------x-----|--4--4--4--4-----7-7--8-8-|
--2--2--0--2--------0--|--2--2--0--2---------0--|--2--2--0--2-----5-5--6-6-|
-----------------------|------------------------|--------------------------|

------------------------|-----------------------|-------------------------|
------------------------|-----------------------|-------------------------|
--9--9--7--9------x--7--|--9--9--7--9--------7--|--9--9--7--9------x------|
--9--9--7--9------x--7--|--9--9--7--9--------7--|--9--9--7--9------x------|
--7--7--5--7------x--5--|--7--7--5--7--------5--|--7--7--5--7------x-5-5--|
------------------------|-----------------------|-------------------------|

----------------------------|----------------------|-------------------------|
--9--9--7--x-x----------7-7-|--9--9--7-------------|--9--9--7--9-------------|
--9--9--7--x-x----------7-7-|--9--9--7--9r---------|--9--9--7--9------x-x----|
--9--9--7--x-x-------2--7-7-|--9--9--7-------------|--9--9--7--9------x-x----|
--7--7--5---------------5-5-|--7--7--5-------------|--7--7--5--7------x-x----|
---------------0--9b--------|----------------------|----------------------0--|

--------------------|---------------------|-----------------------|
--7--------------x--|---------------------|-----------------------|
--7--------------x--|------x--------------|-----------------------|
--7-----------------|------x--------------|--2--2-----2-----------|
--5-----------------|------x--------------|--0--0-----0-----------|
--------------------|---------------15/---|--------3-----------3--|

-----------------------|-----------------------|-----------------------------|
-----------------------|-----------------------|-----------------------------|
-----------------------|----------------9r-----|----7h9h7/6------------------|
--2--2-----2-----------|--2--2-----2-----------|-------------7---------------|
--0--0-----0-----------|--0--0-----0-----------|----------------7------------|
--------3-----------3--|--------3--------------|-------------------9b-----9/-|

-----------------------|-----------------------|
-----------------------|-----------------------|
-----------------------|-----------------------|
-----2-----2-----------|--2--2-----2-----------|
-----0-----0-----------|--0--0-----0-----------|
--4-----3-----------3--|--------3-----------3--|

----------------------------------|--------------------------------------|
----------------5h8h5h8h5h8h5h8h5-|--9h8h5-9h-8h5-9h5h8h5-9h5-9t---------|
----------------------------------|--------------------------------------|
--2--2-----2----------------------|--------------------------------------|
--0--0-----0----------------------|--------------------------------------|
--------3-------------------------|--------------------------------14/---|

-----------------------|-----------------------|-----------------------|
-----------------------|-----------------------|-----------------------|
--4--4-----4-----------|-----------------------|-----------------------|
--4--4-----4-----------|--4--4--4--4--------4--|--4--4--4--4-----------|
--2--2--0--2--------0--|--2--2--0--2--------0--|--2--2--0--2--------0--|
-----------------------|-----------------------|-----------------------|

------------------------|-----------------------|-----------------------|
------------------------|--9--9--7--9--------7--|--9--9--7--9--------7--|
------------------7--8--|--9--9--7--9--------7--|--9--9--7--9--------7--|
--4--4--4--4------7--8--|--9--9--7--9--------7--|--9--9--7--9--------7--|
--2--2--0--2------5--6--|--7--7--5--7--------5--|--7--7--5--7--------7--|
------------------------|-----------------------|-----------------------|

-----------------------|-----------------------|------------------------|
--9--9--7--9--------7--|--9--9--7--9--------7--|--9---------------------|
--9--9--7--9--------7--|--9--9--7--9--------7--|--9---------------------|
--9--9--7--9--------7--|--9--9--7--9--------7--|--9---------------------|
--7--7--5--7--------5--|--7--7--5--7--------5--|--7---------------------|
-----------------------|-----------------------|-------x--x--3--5--2----|

-------------------------|-------------------|--------------------|
--9--9--7--9-------------|--7----------------|---------------5----|
--9--9--7--9------x------|--7----------------|----x----------7b---|
--9--9--7--9------x------|--7----------------|----x---------------|
--7--7--7--7------x------|--5----------------|----x---------------|
--------------------12---|-------------------|--------------------|

--5--5-5----5-5-5-----5-5-5--|-----5-----------------------------|
--5--5-5----5-5-5-----5-5-5--|-----5-------------x-5h8-10h5h8-10h|
---------7b--------7b--------|--7b---7r---5-7b-------------------|
-----------------------------|-----------------------------------|
-----------------------------|-----------------------------------|
-----------------------------|-----------------------------------|

-----------------------------------------------------------|
--5h8-10h5h8-10h5/4-10h7h4-10h7h4h3-10h6h3-10h6h3-10h2-----|
-------------------------------------------------------4r--|
-----------------------------------------------------------|
-----------------------------------------------------------|
-----------------------------------------------------------|

--------------------17-----|--------------17-------17-|
-----------------------20r-|-------20b-------20b------|
---9t---4---2----18--------|--------------------------|
---------------------------|--------------------------|
---------------------------|--------------------------|
---------------------------|--------------------------|

---------------------------------------|-------------------------------|
--20h17----17----------------------12b-|----17--17b-17--17b-17r-----17-|
--------19----19r---17-19~------17-----|-------------------------------|
-----------------------------16--------|-------------------------------|
---------------------------------------|-------------------------------|
---------------------------------------|-------------------------------|

-------------------------------|-------------------|---------------------|
-------------------------------|-------------------|---------------------|
--17-17r--14-------14~---------|--9b---------------|-----------9---9--9--|
-------------------------------|-------------------|---------------------|
-------------15-16----------x--|-------------------|---------------------|
----------------------------x--|-------------------|---------------------|

-------------------------------|--------------------------|------------------|
-------------------------------|--------------------------|------------------|
--9--9--9--9--9--9--9--9-9-9-9-|--9--9--9--x--------------|------------------|
-------------------------------|-----------x--------------|------------------|
-------------------------------|-----------x--------------|------------------|
-------------------------------|--------------------15/---|------------------|

------------------|------------------|------------------|------------------|
------------------|------------------|------------------|------------------|
------------------|------------------|------------------|------------------|
------------------|------------------|------------------|------------------|
------------------|------------------|------------------|------------------|
------------------|------------------|------------------|------------------|

------------------|------------------|---------------------|------------------|
------------------|------------------|---------------------|------------------|
------------------|------------------|--------5------------|------------------|
------------------|------------------|-------------5----7--|------------------|
------------------|------------------|---------------------|------------------|
------------------|------------------|---------------------|------------------|

------------------|-------------------|-----------------------|
------------------|-------------------|-----------------------|
------------------|----------------x--|--x----x----x----------|
------------------|----------------x--|--x----x----x----------|
------------------|----------------x--|--x----x----x----------|
------------------|-------------------|---------------14------|

-----------------------|-----------------------|-----------------------|
-----------------------|-----------------------|-----------------------|
-----------------------|-----------------------|-----------------------|
--4--4--4--4--------4--|--4--4--4--4--------4--|--4--4--4--4--------4--|
--2--2--0--2--------0--|--2--2--0--2--------0--|--2--2--0--2--------0--|
-----------------------|-----------------------|-----------------------|

------------------------|-----------------------|-----------------------|
------------------------|--------------------7--|--9--9--7--9--------7--|
------------------2--3--|--------------------7--|--9--9--7--9--------7--|
--4--4--4--4------0--1--|--9--9--7--9--------7--|--9--9--7--9--------7--|
--2--2--0--2------------|--7--7--5--7--------5--|--7--7--5--7--------5--|
------------------------|-----------------------|-----------------------|

-------------------------|---------------------------|-----------------------|
--9--9--7--9----------7--|--9----7---------------7-7-|--9---9-7-----------7--|
--9--9--7--9------x-x-7--|--9----7---------------7-7-|--9---9-7-----------7--|
--9--9--7--9------x-x-7--|--9----7------------2--7-7-|--9---9-7-----------7--|
--7--7--5--7------x-x-5--|--7----5---------------5-5-|--7---7-5--7b-------5--|
-------------------------|----------12/-0--3b--------|-----------------------|

-----------------------|-----------------------|
--9--9-----------------|--9----9----9----12----|
--9--9--x--9b----------|--9----9----9----12----|
--9--9--x--------------|--9----9----9----12----|
--7--7--x--------------|--7----7----7----x-----|
--------------------0--|--0----0----0----0-----|

---12----12----------------------12----------------------------------------|
------15b---12h15h12----12h15h12----12h15h12----12-------------------------|
---------------------15----------------------16----15-14h12----14----11h12-|
------------------------------------------------------------14----14-------|
---------------------------------------------------------------------------|
---------------------------------------------------------------------------|

---------------------------------------------------|-------------------||
---------------------------------------------------|-------------------||
--11----11-----------------------------------------|-------------------||
-----14----12-14-11h12h11----11--------------------|-------------------||
--------------------------14----12/11/9/7/5---2b---|--2----------------||
---------------------------------------------------|--0----------------||


Текст, аккорды и табулатура для песни "You Really Got Me", исполняет "Van Halen".
Используемые в песне аккорды можно найти в разделе Как брать аккорды. Аккорды для шестиструнной гитары. Другие песни можно найти на нашем сайте, воспользовавшись алфавитным указателем вверху страницы.


Слушать онлайн You Really Got Me


Van HalenYou Really Got Me на Яндекс.Музыке


 
Ошибка в тексте? Выделите ошибку и нажмите Ctrl+Enter