Tabbed By
Julian Loor
1972 Plymouth Fury III
[email protected]

Van Halen - Jump


C5
x 3 5 x x x F5
1 3 x x x x G5
3 5 x x x x Bb5
6 8 x x x x 
A5
x 0 2 2 x x Ab5
4 6 6 x x x 

Gtr I (E A D G B E) - 'Eddie Van Halen - Synth. arr. Gtr.'
Gtr II, III (E A D G B E) - 'Eddie Van Halen - Elec. Gtr. (w/dist.)'
Gtr IV, V (E A D G B E) - 'Eddie Van Halen - Elec. Gtr.'

Intro
    Moderately Q=129
   4/4
    Gtr I
    Q   E E E  E E E    E E E  E E  E E  E
||-------------------|---------------------|
||o----15-----17-----|-13-----13---15---15-|
||-----16-----17-----|-14-----14---16---16-|
||-----17-----17-----|-15-----15---17---17-|
||o------------------|---------------------|
||-------------------|---------------------|
 |-Rhy Fig 1

   +Q    E E E  E E  E    +E   Q   E  +H      3x
|----------------------|----------------------||
|-(15)--17-----13---10-|-(10)--8---8--(8)----o||
|-(16)--17-----14---10-|-(10)--9---7--(7)-----||
|-(17)--17-----15---10-|-(10)-10--10-(10)-----||
|----------------------|---------------------o||
|----------------------|----------------------||
                                end Rhy Fig 1-|

  Q   E E E  E E E    E E E  E E E  Q
|----20-----20-----|-20-----20-----15--|
|----22-----22-----|-22-----22-----17--|
|----22-----22-----|-22-----22-----17--|
|------------------|-------------------|
|------------------|-------------------|
|------------------|-------------------|


   +E  E  E E E  E E  E    +E   Q   E  +H
|-(15)------------------|---------------------||
|-(17)---13-----10---10-|-(10)--8---8--(8)----||
|-(17)---14-----10---10-|-(10)--9---7--(7)----||
|--------15-----10---10-|-(10)-10--10-(10)----||
|-----------------------|---------------------||
|-----------------------|---------------------||


 1st Verse
 Rhy Fig 1 x2

||----
||o--- (1st) & 2nd verses
||---- Rhy Fig 1 x2
||----
||o---
||----



 Pre-Chorus
  Gtr II
  ~~~~~~~~~~~~~~~          PM        PM              ~~~~~~~~~
  W          +H     H      E E E  E  E E E a E   +E  Q.   +Q.   S S
|----------|-------------|---------------------|--------------------|
|----------|-------------|---------------------|--------------------|
|-9--------|-(9)---------|-----5---------5-7s9-|-(9)s7----(7)-------|
|----------|-------------|---7---------5-------|--------------------|
|----------|-------------|-8-----(8)-7---------|----------------5-7-|
|----------|-------------|---------------------|--------------------|


  PM        PM              ~~
  E E E  E  E E E a E   +E  Q.   +Q.   S S
|---------------------|--------------------|
|---------------------|--------------------|
|-----5---------5-7s9-|-(9)s7----(7)-------|
|---7---------5-------|--------------------|
|-8-----(8)-7---------|----------------5-7-|
|---------------------|--------------------|


  PM        PM--|             ~~~~~~~~~
  E E E  E  E E E a  E    +E  Q.   +H
|----------------------|------------------|
|-----------------8s10-|-(10)s8----(8)----|
|-----5---------5------|------------------|
|---7---------5--------|------------------|
|-8-----(8)-7----------|------------------|
|----------------------|------------------|


   ~~~
  +H     H 
|-------------||
|-(8)---------||  Rhy Fig 1
|-------------||
|-------------||
|-------------||
|-------------||


  Q   E E E  E E E    E E E  E E  E E  E    +Q    E E E  E E  E
|------------------|---------------------|-------20-----15------|
|----15-----17-----|-13-----13---15---15-|-(15)--22-----17---10-|
|----16-----17-----|-14-----14---16---16-|-(16)--22-----17---10-|
|----17-----17-----|-15-----15---17---17-|-(17)--------------10-|
|------------------|---------------------|----------------------|
|------------------|---------------------|----------------------|


  ____________________    ______________      Guitar Solo
 |1.                     |2.
                                                 Gtr III
                                                        ~~~~~~~~    ~~~~
   +E   Q   E  +H          +E   Q   E  +H        E S S  Q   +E  a E Q
|----------------------||---------------------||-------18--(18)---6--------|
|-(10)--8---8--(8)----o||-(10)--8---8--(8)----||-----x----------x---9b11---|
|-(10)--9---7--(7)-----||-(10)--9---7--(7)----||---x-----------------------|
|-(10)-10--10-(10)-----||-(10)-10--10-(10)----||---------------------------|
|---------------------o||---------------------||---------------------------|
|----------------------||---------------------||---------------------------|


                        ~~~~~~                           ~~~
      |-3-|
  S S S S S S S S S S S E +E. +S     E  E    S  E  S E   Q    S S
|-6---------6----------------------|------------------------------|
|---6-9p6-------------6------------|---[6]b8---[6]---6b8-6b8------|
|---------9---9-8p6-8---6-(6)-(6)/-|------------------------------|
|----------------------------------|--------------------------8---|
|----------------------------------|----------------------------8-|
|----------------------------------|------------------------------|


                                 ~       T
           |--3--|     |-3-|        |-3--|
   E      +S   S S S S S S S S S Q  S S  S
|-----------------------------------6h9-13p=|
|-------------------------------------------|
|-[8]b10r([8])------------------------------|
|--------------8p6---6----------------------|
|------------------8---8p7p6s4-6-4----------|
|-------------------------------------------|


           T          T          T      T       T       T
  |----------13:8-----------| |------------13:8--------------|
  S S S S  S S S S S  S S S S S  S S S  S S  S  S S  S  S S  S
|-9p8p6h9-13p9p8p6h9-13p9p8p6----------------------------------|
|-----------------------------9-13p6---------------------------|
|------------------------------------9-13p6h10-----------------|
|----------------------------------------------13p6h10---------|
|------------------------------------------------------13p6h10p|
|--------------------------------------------------------------|


                            ~
  E    +E  +E  E E    +S  S Q
|-------------------------------|
|-------------------------------|
|----------------8b10r(8)p6-8---|
|-------------------------------|
|-6b8==(6)r(6)-8----------------|
|-------------------------------|


   ~~~~PM--|                 ~~~~~~~~
       |-3-| |-3--|
  +E   S S S E E  E  a  E S  Q   +S
|------------6-8-11-11s13-9-11--(11)-|
|----------6-------------------------|
|-(8)---6---------------------------|
|------8-----------------------------|
|------------------------------------|
|------------------------------------|


        |--3--|  |------6-------|  |----------9:8----------|
    E   S  S  S  S  S  S  S  S  S  S  S  S  S  S  S  S  S  S
|------------------------------------------------------------||
|---------------------------------------------------15h16h18-||
|------------------------------------------15h16h18----------||
|---------------15h16h18----------15h16h18-------------------||
|------15h16h18----------15h16h18----------------------------||
|-(16)-------------------------------------------------------||


 Synth. Solo
   S  S  Q.            H
|-15h16p15------------15-----------------|
|----------------------------------------|
|----------------------------------------|
|----------------------------------------|
|----------------------------------------|
|----------------------------------------|
|
| Gtr I
|  E     S S S  S S S  S S S  S S S  S S
|-------10p7---10p7---12p8---12p8---10p7-|
|------------8------8------8------8------|
|----------------------------------------|
|----------------------------------------|
|----------------------------------------|
|----------------------------------------|


   +W
|-(15)---------------------------------|
|--------------------------------------|
|--------------------------------------|
|--------------------------------------|
|--------------------------------------|
|--------------------------------------|
|
|   S   S S S  S S S S S S S S S S S S
|------10p7---10p7---8p5---8p5---8p5---|
|---8-------8------8-----6-----6-----6-|
|--------------------------------------|
|--------------------------------------|
|--------------------------------------|
|--------------------------------------|


  C5
  Gtr IV all x indicate pick scrapes
  W                                    +Q.             E   Q       Q
  |                                     |              |   |       |
  /                                     /              x   x       x

  Gtr I
  E  S S S  S S S  S S S  S S S  S S    S   S S S  S S S S S S S S S S S S
|---10p7---10p7---12p8---12p8---10p7-|-----10p7---10p7---8p5---8p5---8p5---|
|--------8------8------8------8------|--8-------8------8-----6-----6-----6-|
|------------------------------------|-------------------------------------|
|------------------------------------|-------------------------------------|
|------------------------------------|-------------------------------------|
|------------------------------------|-------------------------------------|


  F5
  W                                +W
  |                                 |
  /                                 /

  E S S S S S S S S S  S S S S S    S  S S S S S S S S S S S S S S S
|---7p3---7p3---8p5---10p7---8p5-|----10p7---8p5---8p5---7p3---7p3---|
|-------3-----3-----6------8-----|--6------8-----6-----6-----3-----3-|
|--------------------------------|-----------------------------------|
|--------------------------------|-----------------------------------|
|--------------------------------|-----------------------------------|
|--------------------------------|-----------------------------------|


  G5
  W                               +Q.            E   E    Q.
  |                                |             |   |    |
  /                                /             x   x    x

  E S S S S S S S S S S S S S S    S  S S S  S S S S S S  S S S S S S
|---5p1---5p1---7p3---5p1---7p3-|-----8p5---10p7---8p5---10p7---8p5---|
|-------1-----1-----3-----1-----|--3------6------8-----6------8-----6-|
|-------------------------------|-------------------------------------|
|-------------------------------|-------------------------------------|
|-------------------------------|-------------------------------------|
|-------------------------------|-------------------------------------|


  Bb5
  W
  |
  /

             T         T  T             T  T          T
    |--3--|      |--3--|  |------6------|  |-3--|
  E S  S  S  S S S  S  S  S  S  S S  S  S  S  S S  S  S
|-------------------------------------------------------|
|---8h13-15-20---8h13-15-20p15p13p8h13-15-20p15p8h13-15-|
|-------------------------------------------------------|
|-------------------------------------------------------|
|-------------------------------------------------------|
|-------------------------------------------------------|


  +H.                                           Q
   |                                            |
   /                                            x

   T             T  T          T  T          T  T
   |------6------|       |--3--|       |--3--|  |--3--|
   S  S  S S  S  S  S  S S  S  S  S  S S  S  S  S  S  S S S
|-------------------------------------------------------------|
|-20p15p13p8h13-15-20p15p8h13-15-20p15p8h13-15-20p15p13p8-----|
|-------------------------------------------------------------|
|-------------------------------------------------------------|
|-------------------------------------------------------------|
|-------------------------------------------------------------|


  A5
  W
  |
  /

          T  T          T  T             T  T          T
    |--3--|       |--3--|  |--3--| |--3--|  |-3--|
  E S  S  S  S  S S  S  S  S  S  S S  S  S  S  S S  S  S
|--------------------------------------------------------|
|---8h13-15-20p15p8h13-15-20p15p13p8h13-15-20p15p8h13-15-|
|--------------------------------------------------------|
|--------------------------------------------------------|
|--------------------------------------------------------|
|--------------------------------------------------------|


  +H                           Q                Q
   |                           |
   /                           x

   T          T  T          T  T             T  T       T
        |--3--|       |--3--|  |------6------|
   S  S S  S  S  S  S S  S  S  S  S  S S  S  S  S  S S  T  T
|--------------------------------------------------------------|
|-20p15p8h13-15-20p15p8h13-15-20p15p13p8h13-15-20p15p8-15p13---|
|--------------------------------------------------------------|
|--------------------------------------------------------------|
|--------------------------------------------------------------|
|--------------------------------------------------------------|


  Ab5
  W
  |
  /

          T  T          T  T          T  T         T
    |--3--|       |--3--|       |--3--|
  E S  S  S  S  S S  S  S  S  S S  S  S  S  T  S.  S
|----------------------------------------------------|
|---8h13-15-20p15p8h13-15-20p15p8h13-15-20p15p13--15-|
|----------------------------------------------------|
|----------------------------------------------------|
|----------------------------------------------------|
|----------------------------------------------------|


  +W
   |
   /

   T             T  T             T  T
   |---------9:8----------| |--3--|  |--3--|
   S  S  S S  S  S  S  S  S E  E  E  E  E  E
|---------------------------------------------|
|-20p15p13p8h13-15-20p15p13p8h13-15-20p15p13--|
|---------------------------------------------|
|---------------------------------------------|
|---------------------------------------------|
|---------------------------------------------|


  G5                               C5
  W               +W               W                 +W
  |                |               |                  |
  /                /               /                  /

  |-3-| |-3-|      |-3-| |-3-|
  Q Q Q Q Q Q      Q Q Q Q Q Q     Q.   E +E  Q.     +W
|---------------|----------------|-----------------|--------||
|---------------|----8-----------|-----------------|--------||
|---5-7-9-5-7---|--9---5-9-5-7---|-7----9-(9)-5----|-(5)----||
|---------------|----------------|-----------------|--------||
|---------------|----------------|-----------------|--------||
|---------------|----------------|-----------------|--------||


    Gtr I Rhy Fig 1 x2


 Out-chorus with Rhy Fig 1 x3
  Gtr V
      PM----------------|    PM-----------
  Q   E E E  E E E    E E E  E E  E E  E
|------------------|---------------------|
|------------------|---------------------|
|------------------|---------------------|
|------------------|---------------------|
|-----3-3-3--3-3-3-|--3-3----3-3--3-3--3-|
|------------------|---------------------|



 -----------------------------------------------|
    E  E  E E E  E E  E     E   E E  E   E  E E E
|-----------------------|-------------------------|
|-----------------------|-------------------------|
|-----------------------|-------------------------|
|-----------------------|-------------------------|
|---3--3--3-3-3--3-3--3-|---3---------------------|
|-----------------------|-------1-1--3---3--3-3-3-|



  PM---------------------------------------
  E E  E E E  E E E    E E E  E E  E E  E
|-------------------|---------------------|
|-------------------|---------------------|
|-5-5--5-5-5--5-5-5-|--5-5-5--5-5--5-5--5-|
|-------------------|---------------------|
|-------------------|---------------------|
|-------------------|---------------------|



 -------------------------|                 PM--|
    E  E  E E E  E E  E     E   E E  E  +E  E E E
|-----------------------|-------------------------|
|-----------------------|-------8----8--(8)-------|
|---5--5--5-5-5--5-5--5-|---5---5----5--(5)-------|
|-----------------------|-------------------5-5-5-|
|-----------------------|-------------------------|
|-----------------------|-------------------------|



  PM---------------------------------------
  E E  E E E  E E E    E E E  E E  E E  E
|-------------------|---------------------|
|-------------------|---------------------|
|---5--5-5-4--4-5-2-|--2-2-5--5-4--4-5----|
|-------------------|-------------------5-|
|-3-----------------|---------------------|
|-------------------|---------------------|



 -------------------------|
    E  E  E E E  E E  E     E   E E  E  +E  E E E
|-----------------------|-------------------------|
|-----------------------|-------8----8--(8)-8-8-8-|
|---------5-5-5--5-5--5-|---5---5----5--(5)-5-5-5-|
|---5--5----------------|-------------------------|
|-----------------------|-------------------------|
|-----------------------|-------------------------|



    PM------------------------------------
  E E  E E E  E E E    E E E  E E E  E E
|-------------------|--------------------|
|-------------------|--------------------|
|---5--5-5-5--5-5-5-|--5-5-5--5-5-5--5-5-|
|-------------------|--------------------|
|-------------------|--------------------|
|-------------------|--------------------|
|
| Q    E E E  E E E    E E E  E E E  Q
|-----20-----20-----|-20-----20-----15---|
|-----22-----22-----|-22-----22-----17---|
|-----22-----22-----|-22-----22-----17---|
|-------------------|--------------------|
|-------------------|--------------------|
|-------------------|--------------------|


 -------------------------|
    E  E  E E E  E E  E     E   Q   E  +H
|-----------------------|---------------------|
|-----------------------|-------8---8--(8)----|
|---5--5--5-5-5--5-5--5-|---5---5---5--(5)----|
|-----------------------|---------------------|
|-----------------------|---------------------|
|-----------------------|---------------------|
|
|  +E  E  E E E  E E  E    +E   Q   E  +H
|-(15)------------------|---------------------|
|-(17)---13-----10---10-|-(10)--8---8--(8)----|
|-(17)---14-----10---10-|-(10)--9---7--(7)----|
|--------15-----10---10-|-(10)-10--10-(10)----|
|-----------------------|---------------------|
|-----------------------|---------------------|

with Rhy Fig 1
    PM-------------------------------------
  E E  E E E  E E E    E E E  E E  E E  E
|-------------------|---------------------|
|-------------------|---------------------|
|---5--5-5-4--4-5-2-|--2-2-5--5-4--4-5----|
|-------------------|-------------------5-|
|-------------------|---------------------|
|-------------------|---------------------|



 -------------------------|
    E  E  E E E  E E  E     E   E E  E  +E  E E E
|-----------------------|-------------------------|
|-----------------------|-------8----8--(8)-8-8-8-|
|---------5-5-5--5-5--5-|---5---5----5--(5)-5-5-5-|
|---5--5----------------|-------------------------|
|-----------------------|-------------------------|
|-----------------------|-------------------------|



    PM------------------------------------
  E E  E E E  E E E    E E E  E E E  E E
|-------------------|--------------------|
|-------------------|--------------------|
|---5--5-5-5--5-5-5-|--5-5-5--5-5-5--5-5-|
|-------------------|--------------------|
|-------------------|--------------------|
|-------------------|--------------------|
|
| Q    E E E  E E E    E E E  E E E  Q
|-----20-----20-----|-20-----20-----15---|
|-----22-----22-----|-22-----22-----17---|
|-----22-----22-----|-22-----22-----17---|
|-------------------|--------------------|
|-------------------|--------------------|
|-------------------|--------------------|


 -------------------------|
    E  E  E E E  E E  E     E   E E  E  +E  E E E
|-----------------------|-------------------------*|
|-----------------------|-------8----8--(8)-8-8-8-*|
|---5--5--5-5-5--5-5--5-|---5---5----5--(5)-5-5-5-*|
|-----------------------|-------------------------*|
|-----------------------|-------------------------*|
|-----------------------|-------------------------*|
|
|  +E  E  E E E  E E  E    +E   Q    E  +H
|-(15)------------------|-------------------------*|
|-(17)---13-----10---10-|-(10)--8----8--(8)-------*|
|-(17)---14-----10---10-|-(10)--9----7--(7)-------*|
|--------15-----10---10-|-(10)-10---10-(10)-------*|
|-----------------------|-------------------------*|
|-----------------------|-------------------------*|


Текст, аккорды и табулатура для песни "Jump", исполняет "Van Halen".
Используемые в песне аккорды можно найти в разделе Как брать аккорды. Аккорды для шестиструнной гитары. Другие песни можно найти на нашем сайте, воспользовавшись алфавитным указателем вверху страницы.


Слушать онлайн Jump


Van HalenJump на Яндекс.Музыке


 
Ошибка в тексте? Выделите ошибку и нажмите Ctrl+Enter