Solo to Awesome Song Jump
Van Halen

Transcribed by shaharizal
The Tapping Part is pretty easy, so it might take a while to figure
out, and the last part is fun, but very fast.  One Key to playing perfectly
is to practice.:)  ... a lot.
**Bonus at Bottom**
Solo : w/ bass implied chords
(2:17)
  Bbm      Gb    Ab   Db      PH---
e-----18vvvvv---6--------6----------6-------------------------------|
b----x----------x---9bvv----6--9p6--------------6--------------------|
g---x------------------------------9----9p8p6-8---6vvv/-------6---6--|
d------------------------------------------------------------x-------|
a-----------------------------------------------------------x--------|
e--------------------------------------------------------------------|
    PH----        PH-    T       T
e----------------------------------------------h6h9-13p9p8p6h9h13p9p8|
b--------------------------------------------------------------------|
g---6b--6b-----------------------------------------------------------|
d------------8-----6br-8p6---6---------------------------------------|
a--------------8-----------8---8-7-64-6-4vvv------------------------|
e--------------------------------------------------------------------|
       T  T  T  T  T 
e-p6h9-13p9p8p6--------------------------------------------------------|
b--------------h9h13-6-------------------------------------------------|
g---------------------h9--13p6h10-----------------------------8b9r8rp6-|
d---------------------------------13p6h10------------------------------|
a-----------------------------------------13p6vv(6)b8vr6-/8-----------|
e----------------------------------------------------------------------|
   rake-|
   PM---|
e--------------6--8--11-11h13v--9h11vvv/-----------------------------|
b-------------6------------------------------------------------------|
g-8vvvvv----6-------------------------------------------------------|
d-----------8--------------------------------------15h16h18----------|
a-----------------------------------------15h16h18----------15h16h18-|
e--------------------------------------------------------------------|
    C
e-----------------------------15h16p15vvvvvvvvvvv--|
b--------------------15h16h18----------------------|
g-----------15h16h18-------------------------------|...synth solo
d--15h16h18----------------------------------------|
a--------------------------------------------------|
e--------------------------------------------------|
Intro :!!! arrg. for guitar
    G    C    F        G          C    F        C  Gsus4
e---10---12---8---8----10--10vvv--12---8---5vv--3--3vvvv-|
b---12---13---10--10---12--12vvv--13---10--6vv--5--3vvvv-|
g---12---12---10--10---12--12vvv--12---10--5vv--5--5vvvv-|
d--------------------------------------------------------|
a---3vvvvvvvvvvvvvvvvvvvvvvvvvvvvvvvvvvvvvvv-3-----------|
e-----------------------------------------------1--3vv---|
  synth bass.


Текст, аккорды и табулатура для песни "Jump", исполняет "Van Halen".
Используемые в песне аккорды можно найти в разделе Как брать аккорды. Аккорды для шестиструнной гитары. Другие песни можно найти на нашем сайте, воспользовавшись алфавитным указателем вверху страницы.


Слушать онлайн Jump


Van HalenJump на Яндекс.Музыке


 
Ошибка в тексте? Выделите ошибку и нажмите Ctrl+Enter