E--------------|
B--------------|
G|----------|--2--------------------5--|
D|-----x----|--2--------------5--7-----|
A|-----x----|--0--------7r-7b----------|
E|-------14/---------------|

--------------5---------0---------0---------0---------0-|
------------5-5-8h5h0-----8h5h0-----8h5h0-----8h5h0-----|
--7r-5h-7b------------8---------8---------8---------8---|
--------------------------------------------------------|
--------------------------------------------------------|
--------------------------------------------------------|

------------5-------------------------------------------------------------|
--8h5h0---5---8h5---5-----------------------------------------------------|
--------7---------7b--7r5---4-5-7-5-7h5h4---4h7h5h4---4h7h5h4---4h7h5h4---|
--------------------------6---------------7---------7---------7---------7-|
--------------------------------------------------------------------------|
--------------------------------------------------------------------------|


                                                           
----------------------------------------------|
----------------------------------------------|
--4-----------------------------------------2-|
----7-6-5-4---------------------------------2-|
------------7-6-5-3/15-------15/0-|------0---0---0---0--0-|
-----------------------0----------------------|


                         
------------------------|
-------3----3----3/--19-|
--2----0----2-----------|
--2----0----0-----------|
--0---------------------|
-------3----------------|


                                                             
------17-----17-----17-----17------------17-20~-21----19/20-|
--20b----20b----20b----20b----20b---x-20-----------19-------|
----------------------------------0-------------------------|
------------------------------------------------------------|
------------------------------------------------------------|
------------------------------------------------------------|


                                                     
--17-------------------17-20r-17----17--------------|
------19-19r-19b17-20b-----------20----20r17----20r-|
---------------------------------------------19-----|
----------------------------------------------------|
----------------------------------------------------|
----------------------------------------------------|


                                                                            
----------------------------------------16h17h20------------14-17-20h17-20h|
----17-20r17----20r-20b--------16h18h20----------14h17h20-x----------------|
-------------19----------12/18---------------------------------------------|
---------------------------------------------------------------------------|
---------------------------------------------------------------------------|
---------------------------------------------------------------------------|


                                                        
--17h14h15h14------------------------------------------|
--------------17h14----14----------------------15r-15b-|
--------------------17----17r14h17-17h14---------------|
------------------------------------------x------------|
------------------------------------------x------------|
--------------------------------------------0----------|


                                                                   
------12-12-12-16-16-16-16-19-19-19-19/17-17-17-16-16-16-16-16-16-|
--15b-------------------------------------------------------------|
------------------------------------------------------------------|
------------------------------------------------------------------|
------------------------------------------------------------------|
------------------------------------------------------------------|


                                                                           
--14-14-14-16-16-16-12-12-12-16-16-16-19-19-19-17-17-17-16-16-16-17-17-17-|
--------------------------------------------------------------------------|
--------------------------------------------------------------------------|
--------------------------------------------------------------------------|
--------------------------------------------------------------------------|
--------------------------------------------------------------------------|


                                                                     
--14-14-14-16-16-16-12-12-12-14/10-10-10-12/10/9-9-9-10-9/7-7-7-9-7/|
--------------------------------------------------------------------|
--------------------------------------------------------------------|
--------------------------------------------------------------------|
--------------------------------------------------------------------|
--------------------------------------------------------------------|


                                                       
--5-5-5-7-5/3-3-3-5-3/1-1-1-1-1-1-1-1-1h3h1-0---------|
----------------------------------------------5-3-1-0-|
------------------------------------------------------|
------------------------------------------------------|
------------------------------------------------------|
------------------------------------------------------|


                                              
---------------------------------|
---------------------------------|
--4-2r----1----------------------|
---------------------------------|
---------------x-----------------|
---------------x-19-0----|------0------------|


                                              
---------------------------------------------|
----x----------------------------------------|
----x---------------5h0-------5h0-----10---9-|
----x---5h7-7-7-7-7-----7-7-7-----7/8----8---|
----x-7--------------------------------------|
---------------------------------------------|


                                                                
---------------------------------------------------------------|
---------------------------------------------------------------|
---------------------------------------------0-x---------------|
--9h11h9h11h9h11h9h11h9h11h9h11h9h11h9h11h9h-0-x---5h7-7-7-7-7-|
-----------------------------------------------x-7-------------|
---------------------------------------------------------------|


                                                          
---------------------------------------------------------|
---------------------------------------------------------|
--5h0--------5h0---10h0-9-7h0----12----11-9h11h9h11h9h11/|
------7-7-7------8----8-------10----10-------------------|
---------------------------------------------------------|
---------------------------------------------------------|


                                     
------------------------------------|
------------------------------------|
--7h-9h7h9h7/5h-7h5h7h5/4h6h4h6h4h6-|
------------------------------------|
------------------------------------|
------------------------------------|


  (C#m)                                                    
----------------------------------------------------------|
----------------------------------------------------------|
--18h6h9-13h6h9-13h6h9-13h6h9-13h6h9-13h6h9-13h6h9-13h6h9-|
----------------------------------------------------------|
----------------------------------------------------------|
----------------------------------------------------------|


  (A)                                                        
------------------------------------------------------------|
------------------------------------------------------------|
--14h6h9-14h6h9-14h6h9-14h6h9-14h6h9-14h6h9-14h6h9-14h6h9h8-|
------------------------------------------------------------|
------------------------------------------------------------|
------------------------------------------------------------|


  (A dim)                                                          
------------------------------------------------------------------|
------------------------------------------------------------------|
--14h8h11-14h8h11-14h8h11-14h8h11-14h8h11-14h8h11-16h8h11-16h8h11-|
------------------------------------------------------------------|
------------------------------------------------------------------|
------------------------------------------------------------------|


  (E)                                                              
------------------------------------------------------------------|
------------------------------------------------------------------|
--16h9h13-16h9h13-16h9h13-16h9h13-16h9h13-16h9h13-16h9h13-16h9h13-|
------------------------------------------------------------------|
------------------------------------------------------------------|
------------------------------------------------------------------|


  (C)                                             (Csus2)             
---------------------------------------------------------------------|
---------------------------------------------------------------------|
--17h9h12-17h9h12-17h9h12-17h9h12-17h9h12-17h9h12-19h9h12-19h9h12h11-|
---------------------------------------------------------------------|
---------------------------------------------------------------------|
---------------------------------------------------------------------|


  (D)                                                   (Dsus2)            
--------------------------------------------------------------------------|
--------------------------------------------------------------------------|
--19h11h14-19h11h14-19h11h14-19h11h14-19h11h14-19h11h14-21h11h14-21h11h14-|
--------------------------------------------------------------------------|
--------------------------------------------------------------------------|
--------------------------------------------------------------------------|


  (E)                                                                         
-----------------------------------------------------------------------------|
-----------------------------------------------------------------------------|
--21h16h13-21h16h13-21h16h13-21h16h13-21h16h13-21h16h13-21h16h13-21h16h13-21h|
-----------------------------------------------------------------------------|
-----------------------------------------------------------------------------|
-----------------------------------------------------------------------------|


                    (E7)            (E°)              (Am)               
------------------------------------------------------------------------|
------------------------------------------------------------------------|
--13h16-21t13h16-21h16--21h16h19-21t15h18-21t15h18-21h14h17-21t14h17-21t|
------------------------------------------------------------------------|
------------------------------------------------------------------------|
------------------------------------------------------------------------|


  (E)               (E7)                 (E°)              (Am)               
-----------------------------------------------------------------------------|
-----------------------------------------------------------------------------|
--13h16-21h13h16/19-21h16h19-21h16h19-21h15h18-21h15h18-21h14h17-21h14h17-21h|
-----------------------------------------------------------------------------|
-----------------------------------------------------------------------------|
-----------------------------------------------------------------------------|


                    (D7)              (D°)                 (Gm)            
--------------------------------------------------------------------------|
--------------------------------------------------------------------------|
--13h16-21h13h16-19h14h17-19h14h17-19h13h16-19h13h16-19h12h15-19h12h15-19h|
--------------------------------------------------------------------------|
--------------------------------------------------------------------------|
--------------------------------------------------------------------------|


  (D)                  (C7)              (C°)              (Fm)               
-----------------------------------------------------------------------------|
-----------------------------------------------------------------------------|
--11h14-19h11h14/17-18h12h15-17h12h15-17h11h14-17h11h14-17h10h13-17h10h13-17h|
-----------------------------------------------------------------------------|
-----------------------------------------------------------------------------|
-----------------------------------------------------------------------------|


  (C)             (B)                                                           
--------------------------------------------------------------------------------
--------------------------------------------------------------------------------
--9h12-17h9h12-16h8h11-16h8h11-16h8h11-16h8h11-16h8h11-16h8h11-16h8h11-16h8h11-1
--------------------------------------------------------------------------------
--------------------------------------------------------------------------------
--------------------------------------------------------------------------------


  (Em)                                                             
------------------------------------------------------------------|
------------------------------------------------------------------|
--9h12-16h9h12-16h9h12-16h9h12-16h9h12-16h9h12-16h9h12-16h9h12-16h|
------------------------------------------------------------------|
------------------------------------------------------------------|
------------------------------------------------------------------|


  (B)                                                              
------------------------------------------------------------------|
------------------------------------------------------------------|
--8h11-16h8h11-16h8h11-16h8h11-16h8h11-16h8h11-16h8h11-16h8h11-16h|
------------------------------------------------------------------|
------------------------------------------------------------------|
------------------------------------------------------------------|


  (Em)    (B)     (Em)    (B)     (Em)    (B)     (Em)    (B)      
------------------------------------------------------------------|
------------------------------------------------------------------|
--9h12-16h8h11-16h9h12-16h8h11-16h9h12-16h8h11-16h9h12-16h8h11-16h|
------------------------------------------------------------------|
------------------------------------------------------------------|
------------------------------------------------------------------|


  (Em)    (B)     (Em)    (B)     (Em)    (B)     (Em)    (B)      
------------------------------------------------------------------|
------------------------------------------------------------------|
--9h12-16h8h11-16h9h12-16h8h11-16h9h12-16h8h11-16h9h12-16h8h11-16h|
------------------------------------------------------------------|
------------------------------------------------------------------|
------------------------------------------------------------------|


                                                                            
--------------------------------------------------||
-----------------------------------------|--12----------------||
--9/----------------------------------------------||
--------------------------------------------------||
--------------------------------------------------||
-------4/18b---19h0------12-12----12--7--|--12----------------||


Текст, аккорды и табулатура для песни "Eruption", исполняет "Van Halen".
Используемые в песне аккорды можно найти в разделе Как брать аккорды. Аккорды для шестиструнной гитары. Другие песни можно найти на нашем сайте, воспользовавшись алфавитным указателем вверху страницы.


Слушать онлайн Eruption


Van HalenEruption на Яндекс.Музыке


 
Ошибка в тексте? Выделите ошибку и нажмите Ctrl+Enter