*******VAN HALEN --------AINT TALKIN BOUT LOVE*********
                 BY: BRANDON


             TUNING SHOULD BE DROPPED BY HALF A NOTE

                  ENJOY
E-------------------------------------------------------------- 
B---------------------5--6----------------8----------------------
G----------5-------------------5-------------7-------------------   X4
D--------------7---------------------7------------5~-------------
A------7------------------------------------------------3~-2h3---
E---5------------------------------------------------------------
    -----------------------PM-----------------
    
                                
E------------------------------|------|--|-----------------------|
B------------------------------|------|--|-----------------------|
G------------------------------|------|--|-5-5/7--7/9---9/12-----| X2
D-----7--7--7----7--7--7---5---|------|--|-----------------------|
A-----7--7--7----7--7--7---5---|3~-2h3|--|-----------------------|
E-----5--5--5----5--5--5---3---|------|--|-----------------------|
        -PM--      -PM-- 

 
E----------------------------------------------------------------
B---------------------6----8-------------------------------------
G-----------5---------5----7-------------------------------------X4
D--------------7-----------5-------------------------------------
A------7-------------------------3~-2h3--------------------------
E---5------------------------------------------------------------
  -----PM--------



E----------------------------------------------------------------
B----------------------------------------------------------------
G----------------------------------------------------------------
D--7--7--7---7--7--7----5----------------------------------------X4
A--7--7--7---7--7--7----5----3~--2h3-----------------------------
E--5--5--5---5--5--5----3----------------------------------------




E----------------------------------------------------------------
B---------------------6----8-------------------------------------
G-----------5---------5----7-------------------------------------X4
D--------------7-----------5-------------------------------------
A------7-------------------------3~-2h3--------------------------
E---5------------------------------------------------------------
  -----PM--------



E------------------------------|------|--|-----------------------|
B------------------------------|------|--|-----------------------|
G------------------------------|------|--|-5-5/7--7/9---9/12-----| X2
D-----7--7--7----7--7--7---5---|------|--|-----------------------|
A-----7--7--7----7--7--7---5---|3~-2h3|--|-----------------------|
E-----5--5--5----5--5--5---3---|------|--|-----------------------|
        -PM--      -PM-- 


                             solo
E----------------------------------------------------------------
B---5/8-----10-10-10-10-12-----5/8----10-10---12-13--12---8--5---
G----------------------------------------------------------------
D----------------------------------------------------------------
A----------------------------------------------------------------
E----------------------------------------------------------------

E-----------------------------------------------
B--5/8---10  10--12--13--15---13----15-----17---
G-----------------------------------------------
D-----------------------------------------------
A-----------------------------------------------
E-----------------------------------------------

E---15-12-0-12----15-12-0-12-----15-12-0-12----------------------  ---15/1-
B----------------------------------------------------------------  ---------
G----------------------------------------------------------------X2---------
D----------------------------------------------------------------  ---------
A----------------------------------------------------------------  ---------
E----------------------------------------------------------------  ---------

E----------------------------------------------------------------
B----------------------------------------------------------------
G----------------------------------------------------------------
D--7--7--7---7--7--7----5----------------------------------------X4
A--7--7--7---7--7--7----5----3~--2h3-----------------------------
E--5--5--5---5--5--5----3----------------------------------------


E-------------------3--------------------------------------------
B-------3------3-3----3------------------------------------------
G--2-2------2-------------0--------------------------------------
D----------------------------------------------------------------X4
A----------------------------------------------------------------
E----------------------------------------------------------------


E----------------------------------------------------------------
B----------------------------------------------------------------
G--------------------------->55555555555555


Текст, аккорды и табулатура для песни "Aint Talkin Bout Love", исполняет "Van Halen".
Используемые в песне аккорды можно найти в разделе Как брать аккорды. Аккорды для шестиструнной гитары. Другие песни можно найти на нашем сайте, воспользовавшись алфавитным указателем вверху страницы.


Слушать онлайн Ain’t Talkin’ Bout Love (as made famous by Van Halen)


Paul Dianno (ex-Iron Maiden)Ain’t Talkin’ Bout Love (as made famous by Van Halen) на Яндекс.Музыке


 
Ошибка в тексте? Выделите ошибку и нажмите Ctrl+Enter