Вступление: 
 
 C(8)         CH     Am(5)       Dm(5)              G(3)
E--------------------------------------------------------------------------------------
B---------------------------------------5-6--6--6--6---------------------------------
G--------9---------9--------5--5-6-7-----7--7--7--7---------4---4--4-------------
D-----10-------10--------7----------------------------------5---5---5--5-----------
A--10-------10---------7---------------5----------------5--------------------------
E-8--------7----------5-----------------------------------3---------------------------
2-я строчка в куплете:  Am(5)   G(3)                F                C(8)               G(3)
E----------5-------------3-----------------1-1-1-1------------------ 8-8-8-8-------------3-3-3-3                                    B----------5-------------3-----------------1-1-1-1-------------------8-8-8-8-------------3-3-3-3                                  
G----------5-------------4-----------------2-2-2-2-------------------9-9-9-9-------------4-4-4-4
D------------------------------------------------------------------------------------------------------
A------7------------5------------------3--------------------10-----------------------5--------------
E-5----------3-----------------1---------------------8------------------------3----------------------
Первый и второй куплет играются как вступление. В 3-ем куплете играется боем аккордами без баррэ.Бой в припеве: V ^V ^V(удар вниз приходится на сильную долю), но можно играть и 6-кой. 

(1)
     C     C/H     Am             Dm           G
Я проснулся в собственной луже, среди обшарпанных стен.
   Am    G         F                C          G
Но я стараюсь быть лучше каждый день, каждый день.
Меня вечно тошнит или сушит, это плохо ,но вместе с тем.
Я стараюсь быть лучше каждый день, каждый день.

Припев:

    F              Fm                 C               Am
И видит ночь в моих глазах, всего лишь боль, всего лишь страх  F                Fm         C   C/H Am
Я так боюсь в ней что-то упустить.  F            Fm         C           Am
Сегодня утром тает снег, и я обычный человек F                Fm         C   C/H AmПроснулся чтобы что-то изменить F                Fm           C
Проснулся чтобы что-то изменить.

(2)
  C    C/H       Am             Dm            G
Я вчера в магазине игрушек показывал школьникам член.
  Am    G         F                C          G
Но я стараюсь быть лучше каждый день, каждый день.
Я соседскому парню Илюше продавать стал амфетамин.
Илюша не хочет быть лучше так хуй с ним, так хуй с ним.

Припев:
    F              Fm                 C               Am
И видит ночь в моих глазах, всего лишь боль, всего лишь страх  F                Fm         C   C/H Am
Я так боюсь в ней что-то упустить.  F            Fm         C           Am
Сегодня утром тает снег, и я обычный человек F                Fm         C   C/H AmПроснулся чтобы что-то изменить F                Fm           C
Проснулся чтобы что-то изменить.

(3)
  C    C/H       Am             F         G
Я топчу твое сердце покуда, ты одумаешься и поймешь.
 Am    G         F                C          G
Что я последний ублюдок, и уйдешь, и уйдешь
Я продал бы дьяволу душу, я продал бы дьяволу честь,
Чтобы стать чуть чуть лучше чем я есть, чем я есть.
Припев:

    F              Fm                 C               Am
И видит ночь в моих глазах, всего лишь боль, всего лишь страх  F                Fm         C   C/H Am
Я так боюсь в ней что-то упустить.  F            Fm         C           Am
Сегодня утром тает снег, и я обычный человек F                Fm         C   C/H AmПроснулся чтобы что-то изменить F                Fm           C
Проснулся чтобы что-то изменить.


Текст, аккорды и табулатура для песни "Я стараюсь быть лучше", исполняет "Валентин Стрыкало".
Используемые в песне аккорды можно найти в разделе Как брать аккорды. Аккорды для шестиструнной гитары. Другие песни можно найти на нашем сайте, воспользовавшись алфавитным указателем вверху страницы.


 
Ошибка в тексте? Выделите ошибку и нажмите Ctrl+Enter