e---------------------------------------------------
B---------------------------------------------------
G-----------------0-----2--0--0---------------------
D--------------2-----3-----------------0--3--3--2--0
A-----0--2--3-----------------------2---------------
E--3-----------------------------3------------------

e------------------------------
B------------------------------
G-----------------0-----2--0--0
D--------------2-----3---------
A-----0--2--3------------------
E--3---------------------------
That's all there is to it!  There is more but it's a little 
complicated.  All you need is this intro to impress your friends and you'll be in business in no time.


Текст, аккорды и табулатура для песни "La Bamba", исполняет "Valens Ritchie".
Используемые в песне аккорды можно найти в разделе Как брать аккорды. Аккорды для шестиструнной гитары. Другие песни можно найти на нашем сайте, воспользовавшись алфавитным указателем вверху страницы.


 
Ошибка в тексте? Выделите ошибку и нажмите Ctrl+Enter