Artist: Richie Valens
Song: La Bamba
Tabbed by: Nick Chavez of [email protected]

This tab is only the intro so, the rest of the song is not here.  Maybe someone else has the whole song, but all of the intros are whack. This is a version that I feel is pretty close to the song.  So use this intro and then use a different chord tab.  So without further obdue, here it is.

e------------------------------------------------
B------------------------------------------------
G-----------------0-----2--0---------------------
D--------------2-----3--------------0--3--3--2--0
A-----0--2--3--------------------2---------------          E--3--------------------------3------------------

e---------------------
B---------------------
G--------0--------2--0
D-----2-----3--3------
A--3------------------
E---------------------

And that's it!  Have fun jamm'in to this old fav-classic!


Текст, аккорды и табулатура для песни "La Bamba", исполняет "Valens Ritchie".
Используемые в песне аккорды можно найти в разделе Как брать аккорды. Аккорды для шестиструнной гитары. Другие песни можно найти на нашем сайте, воспользовавшись алфавитным указателем вверху страницы.


 
Ошибка в тексте? Выделите ошибку и нажмите Ctrl+Enter