Music :Juice
 Album :Alien LovE SecretS
-------------------------
// = Vibrato
/   = Slide Up
   = Slide Down
ha  = Harmonic
b = bend 1 whole step
1/2 = bend half step
^ =  Hammer / pull-off
P.m = Palm mute
------------------------

Intro:
    G                              G#
E|-------------------------------------------------------------------------|
B|---8-8-8-8-8-8-8-8-8-8-8-8-8-8--8-9--|--------------------------|--------|
G|---7-7-7-7-7-7-7-7-7-7-7-7-7-7--7-8--|---14--------------------|--------|
D|---5-5-5-5-5-5-5-5-5-5-5-5-5-5--5-6--|--------------------------|--------|
A|-------------------------------------|---------ha-ha----ha------|ha------|
E|-----------------------------------------------3--5-/-0--3-/-0----5-/-0--|

                 P.m....................]
E|-------------------------------------------------------------------------|
B|--------------------------------------|----------Ha--Bar-----------------|
G|--------------------------------------|-----------5--5//----------------|
D|--------------------------------------|-----------------//-------------|
A|--ha-----0-----------ha-------ha------|--0------2------------------------|
E|--3-/-0-----0--5---5--3-/-5----5/0--3------3--5-0----------------3-/-0---|


E|----------------------b--------------------------------------------------|
B|----------------------8-------------------|-----5---------------|--------|
G|--------------------------5/0-------------|---7-5/6-------------|--------|
D|---------------------------------------7--|---7-----------------|--------|
A|---b---------------------------/53----7--|---------------------|--------|
E|---5/--5-/3-5----0-----------------3--5----5--------3--5/0-3/0--5/03/0-|


E|-------------------------------------------------------------------------|
B|------------------------------------|-------------3--------7----Ha-------|
G|------------7-5-/-6-----------------|-------------2--5/6---7-5/6-5-------|
D|------------7-5---------------------|---------2--0--------7-------------|
A|----------0-------------------------|-----b--------------0---------------|
E|--5/03/0---------------3/0-5/0-3/0---5/0-3------------------------------|


E|-------------------------------------------------------------------------|
B|---------Ha-------X-----------|------------|-----------------------------|
G|--7-7/9--9--7-5/6---7-6--4---|------------|-------------7--5-/-6--------|
D|--7-7/9-----7-5-----7-7--5---|------------|----------7--7--5------------|
A|------------------------------|------------|-----------------------------|
E|---------------------------------3-5/0-3/0---5/0-3/5-5-------------------|

E|-------------------------------------------------------------------------|
B|--------------------------------7-5-----------------5--------------------|
G|----------------------7-5-/6----7-5-/-6---7--7/8-7--5-/-6-----7-6-4-----|
D|-------------------7--7-5-------7-5-------7--7/8-7--5---------7-7-5-----|
A|-7/105/742----7-----------------------------------------------------|
E|----------------3--5----------5---------5-------------------5------------|

E|-------------------------------------------------------------------------|
B|-------------------------------------------------|-----------------------|
G|----------------------6-4----7/0-6/0-------------|-----------------------|
D|----------b---------7-7-5-/9---------5----b------|-----------------------|
A|--------5-4---4-4/5--------------------7--7--/19-|-----------------------|
E|---3/0-------------------------------------------------------------------|
Riff1 .....................................................................

E|--------------------------b----------------------------------------------|
B|---3-3---3------------15-17-17-17-12--14-------12-10-10-10----8--7--5---|
G|---0-0---2--2-------14----------------14-----12--------------------------|
D|---0-0---0--2---/14---------------12--14---12-----------11----9--7--5---|
A|------------0---/--------------------------------------------------------|
E|---3-3-------------------------------------------------------------------|

 .............  ]
E|------14-----------------12----------------------------------------------|
B|------15---------12-/-14----12----15-/-14---14-/-12--10--12---10---7--8--|
G|-/12-------14------------------14------------0---------0----0----0--0---0|
D|-/12-------14------------------------------------------------------------|
A|-------------------------------------------------------------------------|
E|-------------------------------------------------------------------------|

E|----------------------------12---------14---------16-------17-------19---|
B|-5-7---3--7--5----------------------------------------------------------|
G|0-0--0-------------------/13---13-/-14-----14-/16----16/18----18/19-19---|
D|----------4--2--2----2--------------------------------------------------|
A|----------------------2--------------------------------------------------|
E|----------------------0--------------------------------------------------|


E|-------------------------------------------------------------------------|
B|----x--7--5--------------------|------------7--5-------------------7-5---|
G|----x--7--5-/-6----------------|------------7--5-/-6---------------7-5/6-|
D|----x--7--5--------------------|------------7--------b--b--b--b--b-7-5/6-|
A|----------------Ha-----Ha------|---------Ha----------3--3--3--4--4-------|
E|-----------------3-/-0-5-/-0-3---5-3-0-3-5-------------------------------|


E|-------------------------------------------------------------------------|
B|----7-5-------------------------------------7----------------------------|
G|----7-5-/-6---------------------------------7-5/6------------------------|
D|----7-5-------------------------------------7-5---------------5/0-4-5/7--|
A|-------------Ha---Ha-------------------Ha-------------5-4-/-0------------|
E|-------------3-/-0-5-/-0---3--5-3-0-3--5-----------3---------------------|
                         Bar
E|------------7--7--7----5------------------------------------------------|
B|----5-3---|-5--5--5---------12---17-------------------------19---17------|
G|--6-6-4---|-4--4--4---------12---17-/18---------------------19---17-/18--|
D|----7-5---|-----------------12---17-------------------------19---17------|
A|----------|----------0-------------------Ha-----b------b-0---------------|
E|-----------------------------------------3-5/-0-3--5-0-3-----------------|

                       ha............                  Harmonics...........
E|-------------------------------------------------------------------------|
B|------19--17-----------------------|--14/-15-14-12-----------3-2-------|
G|------19--17--/-18-----------------|--14/-15-14-12--12-7--5------------|
D|---2--19--17-----------5/0-7/0-9/0-|--14/-15-14-12--12-7---------------|
A|---0----------------0--------------|-------------------------------------|
E|-------------------------------------------------------------------------|
Repeat Riff1
                          8av.............................................
E|-------------12----------------------------------------------------------|
B|-----12-/-14----12------15--------15--14-----14-12-----12--10---------|
G|--14----------------14-----0---------------0---------0------------0------|
D|------------------------------12--12--11-----11--9------9---7---------|
A|-------------------------------------------------------------------------|
E|-------------------------------------------------------------------------|

.................................................................................
E|---------------------------------------12------14-------16------16-------|
B|-10-8---8--7---5--7--5---------|---------------------------------------|
G|-------0-------------------------|-/13----13/14----14/16---16/18---16/18-|
D|--7-5---5--5---2--4--2---------|---------------------------------------|
A|-----------------------0--------2|---------------------------------------|
E|---------------------------0-/7-0----------------------------------------|

E|-17---------19---X--------------------------------------Bar-------------|
B|---------------------|--3-/-5---7---5/7--|--7/10--10/14--14----12--10---|
G|------18/19-19------|--2-/-4---6-0-4/6--|--6/-9---9/13--13----11---9---|
D|---------------------|--0----------------|-------------------------------|
A|---------------------|-------------------|-------------------------------|
E|-------------------------------------------------------------------------|

E|-------------14-16--16--14-12--14----14---0--12-12-12-12-12-11-9---------|
B|--12------0--15-17--17--15-14--15--|-15---0--14-14-14-14----12-10--------|
G|--11-------------------------------|-------------------------------------|
D|-----------------------------------|-------------------------------------|
A|-----------------------------------|----2--------------------------------|
E|-------7-----------------------------------------------------------------|
Solo??? ahahahha :O))
easy???? hahahhaha !!! nope!

by orlando
MAIL:
[email protected]


Текст, аккорды и табулатура для песни "Juice", исполняет "Vai Steve".
Используемые в песне аккорды можно найти в разделе Как брать аккорды. Аккорды для шестиструнной гитары. Другие песни можно найти на нашем сайте, воспользовавшись алфавитным указателем вверху страницы.


Слушать онлайн Juice


Steve VaiJuice на Яндекс.Музыке


 
Ошибка в тексте? Выделите ошибку и нажмите Ctrl+Enter