Title : Die To Live
        Artist : Steve Vai
         Album : Alien Love Secrets
Transcribed by : Luiz Gustavo  =>  [email protected]


Legend
------

 h  = hammer-on
 p  = pull-off
 b  = bend
 r  = bend release
 /  = slide up/down
 = natural harmonic
[5] = artifical harmonic
 ~  = vibrato
 tr = trill



Majestically                              TH12

E|------|----------0------------|-------------0----------|----------0---
B|------|-------2----0------/---|-------2--2----0--------|-------2----0-
G|------|-------2------2---2-4--|-------2--2------2/4/4--|-------2------
D|------|-----2-2--------2------|-----2-2--2-------------|-----2-2------
A|-14--|--0--------------------|--0---------------------|--0-----------
E|------|-----------------------|------------------------|--------------



                     TH12      semi-harm

E|----------|-------------------------||----------0------------|-------
B|----------|------2--2--2h3-2--------||-------2----0----------|-------
G|-2---2/4--|------2--2--------4-2-2--||-------2------2---2/4--|-------
D|---2------|----2-2--2---------------||-----2-2--------2------|-----2-
A|----------|-0-----------------------||--0--------------------|--0----
E|----------|-------------------------||-----------------------|-------



     TH12       semi-harm

E|----------------------|------------0------------|---------------------
B|-2--2---2h3-2-3/75---|---------2----0----------|-------2--2--2h3-2h3-
G|-2--2-----------------|---------2------2---2/4--|-------2--2----------
D|-2--2-----------------|-------2-2--------2------|-----2-2--2----------
A|----------------------|----0--------------------|--0------------------
E|----------------------|-------------------------|---------------------



                                           TH12        P.H.

E|----------|--------0------------|------0-----------------|-----------
B|-2-0------|-----2----0----------|------2--2--------------|-------2-2h
G|-----2-2--|-----2------2---2/4--|----0----2-2/42-2/9-9--|-------2---
D|----------|--0---------0-0------|--0---------------------|-----2-2---
A|----------|---------------------|------------------------|--0--------
E|----------|---------------------|------------------------|-----------



                          TH12

E|--------------|--------------------------------|---------------0-----
B|-3-2----------|-------2--2--2/h5-2-5-2---------|--------3--------1---
G|-----4-4-4/6--|-------2--2-------------42-2---|---(2)--0----------0-
D|--------------|-----2-2--2---------------------|-----------53-------
A|--------------|--0-----------------------------|----3----------------
E|--------------|--------------------------------|---------------------



                TH12 Harm...................................|

E|-------|----------5-------------|-----0---------------------|--------
B|-------|-------2----5-5---5-----|-----1---/12-10--10-------|--------
G|-------|-------2------------5---|-----0---/12-10--10-97---|------9
D|-2p0---|-------2----------------|---------/12-10--10-------|--------
A|-------|--0--0----------3-------|--3------------------75---|------7
E|-------|------------------------|--1------------------------|--------


E|------------------------------------||----------|------------|-------
B|-----2------------------------------||-----3--2-|--4--2-4/-6-|-----2-
G|-----2------------------------------||----------|------------|-------
D|-----2---4b5---r-(4)b5--r(4)p2---0--||----------|------------|-------
A|--0----------------------------4----||----------|------------|-------
E|------------------------------------||--3-------|------------|--2----


E--0--|----------------------|-----------|---------3/5--3--|-----------
B-----|----0-----------------|-----------|--1------1-3--1--|---------9-
G-----|---------2--/42-2-2--|-----2--0--|---------0----0--|---------9-
D-----|----------------------|-----------|---------3/5--3--|---------9-
A-----|----------------------|-----------|-----------------|--2---/7---
E-----|-------2--------------|--1--------|-----1-----------|--0--------


E|---------|---------------------------------|-----------------------|-
B|---7-9---|-------9b10--r--(9)--7---/9------|------------/12--10--9|-
G|---7-9---|-------9b10--r--(9)--7---/9------|------------/11---9--9|-
D|---7-9---|-------9b10--r--(9)--7---/9------|------------/13--11--9|-
A|---------|---------------------------------|-----------------------|-
E|---------|-----------------------------7---|---0--0-0--------------|-
                                       gliss.


                         midle finger tap A.H.

E|-----------0--0----||------------------0-----------|----------------0-
B|-7---(7)-/5--5----||--------/14-17p12---0---------|------/12-10/17---
G|-7---(7)----------||----------------------2---2/4-|------------------
D|-7---(7)----------||-----2------------------2-----|---2--------------
A|-------------------||---0--------------------------|-0----------------
E|-------------------||------------------------------|------------------


E|---------|----9-9-12-12/14-12-0----------|----------------------------
B|-0-------|-------------------------------|-----/14b1--r-(14)p12-------
G|---2/4/4-|----6-6--9--9/11--9---6/9/119-|----------------------14/21-
D|---------|-2-----------------------------|----------------------------
A|---------|-0--------------------4/7/-97-|--0-------------------------
E|---------|-------------------------------|----------------------------


E|-0-----------------|--------------------0---------|---12-(12)10/14--
B|---0---------------|----/14/(14)-17-12----0-------|---12-(12)10/14--
G|-------------------|------------------------6/9-4-|------------------
D|-------------------|-0----------------------------|-0----------------
A|-----4b5--r(4)p2-0-|------------------------------|------------------
E|-------------------|------------------------------|------------------


E|-14-14/151410/1412-|-----------------------------0---------|------
B|-14-14/151410/1412-|------/14-(14)-12-10-----------0-------|------
G|----------------------|---------------------11/139-----------|----4-
D|----------------------|---2-----------------------------------|-2--4-
A|----------------------|-0-------------------------------------|-0----
E|----------------------|---------------------------------4p2-0-|------



                            TH12 Harm...................................|

E|----------------------------|-----------------0---------|---------5---
B|----------14-14-12-1412-10-|---12--(12)-------1-------|------2----5-
G|-(4)p2/14-14-14-12-1412-12-|---12--(12)---------0-----|------2------
D|-(4)p2/14-------------------|---12--(12)-53-------2-0-|------2------
A|----------------------------|---10--(10)---------------|-0--0--------
E|----------------------------|-8-------------------------|-------------


E|----------|-----0-------------------|-------------|-----------0------
B|-5---5----|-----1---/12-10--10-----|----------3--|--(3)--3----------
G|-------5--|-----0---/12-10--10-97-|-9--2----2--|--(2)----2---3----
D|----------|---------/12-10--10-----|-----2----2--|--(2)-------------
A|---3------|--3------------------75-|-7-0--0----|------------------
E|----------|--1----------------------|-------------|----------------7



                             Solo  w/neck pick-up

E|---|-----0------5-|-----||-----------------------|-15p-10-----------|-
B|---|-------0----3-|-----||--------------------13-|---------------13-|-
G|---|----------2-0-|-----||--------------12-12----|-------------x----|-
D|---|---2--------0-|-----||--------10-10----------|-----------x------|-
A|---|--------------|-----||----8-8----------------|------------------|-
E|---|-2------------|-----||--6--------------------|------------------|-


E|------------------------|--------------------------|------------------
B|-15-17--(17)-15--13h15/|-17-13----------13--------|------1615-13----
G|------------------------|-------16-14h16----16p14--|----x----------15-
D|------------------------|--------------------------|--x---------------
A|------------------------|--------------------------|------------------
E|------------------------|--------------------------|------------------


E|-15----|-----------------------------------------|--------------------
B|-------|-------13-----------/11p8----------------|-----------r--------
G|----13|-12-------------------------7h5/7~------|------5b6-----(5)p3-
D|-------|----13----1210--------------------------|--------------------
A|-------|----------------11-----------------------|--------------------
E|-------|-----------------------------------------|--------------------


E|----|---------------------|---------10-------------------|------------
B|----|---0h9-12-912-------|------------------------------|------------
G|----|----------------10~--|--(10)------10/h126----------|------------
D|-5--|---------------------|----------------------5p0-----|-0--7h0-5-7-
A|----|---------------------|--------------------------0h4-|------------
E|----|---------------------|------------------------------|------------


E|-------------|-----------------10/h1210--10-|-11---------11-14h/1714-
B|-------------|-10/h-12-0-10-12-10/-1210--10-|-11------12--------------
G|-7/h-9-0-7-9-|-------------------------------|------12-----------------
D|-------------|-------------------------------|-------------------------
A|-------------|-------------------------------|-------------------------
E|-------------|-------------------------------|-------------------------


E|----14-|---------------------------||-17b19--r--(17)-16h17-16-14-----
B|-16----|-16b17--16--16-16----------||----------------------------17~-
G|-------|---------------------------||--------------------------------
D|-------|-----------------------14-||--------------------------------
A|-------|-----------------------14-||--------------------------------
E|-------|---------------------------||--------------------------------



                         switch to bridge pick-up

E-|----------12----------------------------|---------------------------
B-|-15-12-15----12-14b15--r--(14)p12-------|-------12------------------
G-|----------------------------------14-14-|-13-14----13--r-(13)-------
D-|----------------------------------------|---------------------16-14-
A-|----------------------------------------|---------------------------
E-|----------------------------------------|---------------------------



                          P.H.    P.H.

E|-------|----------------------------------|--------------------------
B|-------|----------------------------------|-9b10--r(9)-7-------------
G|-------|----------------------------------|--------------9p7-7-97~--
D|-12-14-|-11b12--12-10b11--11-8b9---10-7-7-|--------------------------
A|-------|----------------------------------|--------------------------
E|-------|----------------------------------|--------------------------



                 Harm.............................................. Harm.

E|-----|-10------------12-------------------|-12----------------|------
B|--7/-|----10-12b14------12--r(12)--10h12--|----12-------------|------
G|-----|------------------------------------|-------7-----------|------
D|-----|------------------------------------|---------7-5-------|--4~--
A|-----|------------------------------------|-------------4---3-|------
E|-----|------------------------------------|---------------3---|------
                                                                 w/bar


 gliss.         TH12                          TH12               semi-harm.

E|-----||----------------0------------|-------------------------------|-
B|-----||-----2--2--(2)/---0----------|--------2--3/h12-10-10/17-17---|-
G|-----||-----2--2--(2)/-----2---2/4~-|--------2----------------------|-
D|-----||--0--2--2--(2)/-----0-0------|-----2--2----------------------|-
A|--14-||-----------------------------|--0----------------------------|-
E|-----||-----------------------------|-------------------------------|-



         TH12                          Harm....................... w/bar

E|--------------------------------|-------------------------------------
B|-----2--------1412-12-10-12/14-|-------------------/12h10-12-107-10-
G|-----2--2-(2)/1412-12-11-12/14-|--------5-(5)-(5)--------------------
D|---2-2--2-(2)/1412-12-12-12/14-|-------------------------------------
A|-0------------------------------|-0--4-3------------------------------
E|--------------------------------|-------------------------------------



              TH12                               TH12

E|-----|----0--------10-9--9--7--9--9--|------------------------------
B|-----|----2--2-(2)/1210-10-10-10-10--|------2--2------12h10-10/h17-
G|-9--|-2-----2-(2)/-------------------|----2-2--2--------------------
D|-----|-0------------------------------|--0----------/9--9--7--7/-14-
A|---0-|--------------------------------|------------------------------
E|-----|--------------------------------|------------------------------



                TH12                        w/bar graduation release

E|-----|------------0------------|-----------------|-----------0-------
B|-17-|------2--2----0----------|-----2--(2)/-----|----3--------1-----
G|-----|------2--2------2---2/4--|-----2--(2)/0----|----0----------0---
D|-----|----2----2--------2------|---2--------0----|-------53-------2-
A|-----|--0----------------------|-0----------0----|-3--3--------------
E|-----|-------------------------|-----------------|-------------------



                 TH12 Harm...................................|

E|---|---------------5-----------|-----0---------------------|---------
B|---|---------2--2----5-5---5---|-----1---/12-1210-10-----|---------
G|---|---------2--2------------5-|-----0---/12-1210-10-97-|-9/h109-
D|-0-|-2h3-2---2--2--------------|---------/12-1210-10-----|---------
A|---|-------0-------------3-----|--3--------------------75-|-7/--87-
E|---|---------------------------|--1------------------------|---------



       TH12 grad bend

E|------------------------------|--0----------0---------|-----0---------
B|---2--2-----------12-10/1210-|-10------------1-------|-----0------15h
G|---2--2--9/14b11--------------|-12--x-----------0-----|-2------/14----
D|---2--2-----------------------|--------73--------2h0-|-2-2----/14----
A|-0----------------------------|-----------------------|-0-------------
E|------------------------------|-----------------------|---------------



                                                                 let 5 ring

E|----------------12----|--------------------0---------|---------0-|---
B|-14----------------12-|-----12--(12)---------1-------|-2-----2-3-|---
G|----14----1614-------|-----14--(14)-----------0-----|-2-----2-2-|---
D|-------14-------------|-----14--(14)--53--------2h0-|-2-x---2-2-|---
A|----------------------|------------------------------|-----0---0-|---
E|----------------------|-13---------------------------|-----------|---



                                                  dive w/bar

E|-----0-----0-----|----0----------|------------------||-0-----------5-
B|--/5----/5-------|------0--------|------------------||-0-------------
G|-----------------|--------2----2-|---(2)------------||-2-----/7b2----
D|-----------------|-------------0-|---(0)------------||-2-------------
A|-----------------|---------------|----------14------||-0-------------
E|--------------12-|--2--------2-3-|---(3)/10-----0--||---------------


E|-------------------|------------------------------------|------------
B|-5-7b8----r(7)h5---|------------------------------------|------------
G|-----------------7/|---/11-9-9h6-7-6-------------------|------------
D|-------------------|------------------9-7---------------|------------
A|-------------------|----------------------7-97-5-4-5/7|-5-4/h-9-4-
E|-------------------|------------------------------------|------------



                        string noise

E|----------|----------0--|------
B|----------|----12-------|------
G|----------|-14----14----|------
D|----------|-------------|--X-X-
A|---2/-12--|-------------|--X---
E|----------|-------------|------


Текст, аккорды и табулатура для песни "Die To Live", исполняет "Vai Steve".
Используемые в песне аккорды можно найти в разделе Как брать аккорды. Аккорды для шестиструнной гитары. Другие песни можно найти на нашем сайте, воспользовавшись алфавитным указателем вверху страницы.


Слушать онлайн Die To Live


Steve VaiDie To Live на Яндекс.Музыке


 
Ошибка в тексте? Выделите ошибку и нажмите Ctrl+Enter