E||--3---3---3---0---|--5---3---0---3---|--3---3---3---0---|
B||--3---3---3---0---|--5---3---0---3---|--3---3---3---0---|
G||--0---0---0---0---|--0---0---0---0---|--0---0---0---0---|
D||--0---0---0---0---|--0---0---0---0---|--0---0---0---0---|
A-|
E-|


  A7susG    G6   G       F7M  F7M  F7M  Cadd9/  C    C    C    F7M
--5---3---0---3---|--0---0---0---0---|--0---0---0---0---|
--5---3---0---3---|--1---1---1---1---|--1---1---1---1---|
--0---0---0---0---|--2---2---2---0---|--0---0---0---2---|
--0---0---0---0---|--3---3---3---0---|--2---2---2---3---|
---------------|--0---0---0---0---|--3---3---3---0---|
-----------------------|


  Fadd9F7M  F7M  F7M     C    C    C    G
--3---0---0---0---|--0---0---0---3---||
--1---1---1---1---|--1---1---1---3---||
--2---2---2---2---|--0---0---0---0---||
--3---3---3---3---|--2---2---2---0---||
--0---0---0---0---|--3---3---3---2---||
----------------3---||

{1-ый и 2-ой куплеты играются табами представленными выше}

Снова к нам приходит весна
Журавли вернулись домой
Мальчик по дороге идет
В поисках бананов и сна

Снова к нам приходит весна
Девочки надели банты
Почки набухают с утра
Из под снега вылезла цветы

    F7M        C      G
А-аааааааа, а-аааааа веснаааааа
    F7M        C      G
А-аааааааа, а-аааааа веснаааааа

Снова прилетели грачи
Видишь их садись и мечтай
Время есть сходи в зоопарк
Деньги есть купи попугай

А-ааааааааа, а-аааааа веснааааа
А-ааааааааа, а-аааааа веснааааа

 C
е ругай меня, но потекла вода
           G
И мне пора из дома, дома
 C
По ручьям, по звездам, по чужим домам
            G
Все это знакомо, ома
 C
Сонце мне в глаза, но все равно я должен
              G
Встретиься с морем, морем
 C
Разбуди меня когда я снова
                    F7M     G
Возвращусь к тебе я все расскажу-ууууу

 G
абирает соки трава
 G
Подстриги ровнее газон
 C                    F7M
Посмотри в окно улыбнись
 F7M      C         G
арисуй картинку в альбом

А-аааааааа, а-аааааааа ВЕСАаааааа
А-аааааааа, а-аааааааа ВЕСАаааааа

 G
Весна верный дворник месит талую грязь
 G
Весна разбегаются по крышам коты
 G
Весна девки с веслами пускаются в пляс
 G
Весна половодье сносит к черту мосты
 G
Весна, весна, весна, весна, сна, сна , сна, сна, на, на, на, на,
Весна



Текст, аккорды и табулатура для песни "Весна", исполняет "Ва-БанкЪ".
Используемые в песне аккорды можно найти в разделе Как брать аккорды. Аккорды для шестиструнной гитары. Другие песни можно найти на нашем сайте, воспользовавшись алфавитным указателем вверху страницы.


 
Ошибка в тексте? Выделите ошибку и нажмите Ctrl+Enter