F#m                               C#m
|---------------------------------|---------------------------------|
|-------2-------3-------2---------|-------2-------3-------2---------|
|-----2-----2-------2-------2-----|-----1-----1-------1-------1-----|
|-4-----------4-------4-------4---|-2-----------2-------2-------2---|
|---------------------------------|---------------------------------|
|---------------------------------|---------------------------------|

  Hm                                C#
|---------------------------------|---------------------------------|
|-------0-------2-------0---------|-------0-------2-------3p2-------|
|-----------2-------2-------2-----|-----1-----1-------1-------1---1-|
|-----4-------4-------4-------4---|-3-----------3-------3-------3---|
|-5-------------------------------|---------------------------------|
|---------------------------------|---------------------------------|

    F#m                    C#m
Когда-нибудь настанут холода,
   Hm                    C#
И ты опять уедешь, и тогда
Тебе во след рукой - и камень вниз,
И сны сбылись, и косы расплелись...

	    F#m         D
	Когда настанут холода
	   A       C#
	И белая дорога ляжет,
	      F#m          D
	Все промолчат, никто не скажет,
	       A        C#
	Что с холодами не в ладах.
	    Em        F#7
	Да дело даже не в годах,
	      Hm              C#
	Не в деньгах, не в музейной пыли.
	    F#m         D
	Не насовсем, а навсегда,
	   A            C#        F#m D
	Недолго только жили-были.
	 A          C#
	Жили-были...

Проигрыш:

  F#m               D                 A                 C#
|-----5-----4-----|-2-----0---------|-----------------|-----------------|
|-------2-----2---|-3-3-----3---3---|-2-----0---------|---6---7---9-----|
|---2-----2-----2-|-2---2-----2---2-|-2-2-------2-----|-----6---6---6---|
|-4---------------|-----------------|-2---2-------2-3/|-6-------------6-|
|-----------------|-----------------|-----------------|-----------------|
|-----------------|-----------------|-----------------|-----------------|

И если я однажды замолчу,
Меня не предавай, я так хочу.
Надеяться, держаться, дожидаться.
Ах, только бы надолго не прощаться...

	Припев

Моя тюрьма - немое заключенье,
Я стану то ли плачем, то ли пеньем.
Ворованная строчка, ты же знаешь.
Удача, ты меня не покидаешь...

	Припев > 2 раза


Текст, аккорды и табулатура для песни "Жили-были", исполняет "Юта".
Используемые в песне аккорды можно найти в разделе Как брать аккорды. Аккорды для шестиструнной гитары. Другие песни можно найти на нашем сайте, воспользовавшись алфавитным указателем вверху страницы.


 
Ошибка в тексте? Выделите ошибку и нажмите Ctrl+Enter