-------------------------------------------------------------------------------
			     Taste Of Ink – The Used
-------------------------------------------------------------------------------

Tabbed by:Funky Munky
Email:[email protected]

Tuning:Dropped D

Right I’ve seen loads of tabs for this song but none have everything or 
it’s not correct, now this isn’t perfect as there is a lot of guitar work 
going on especially during the bridge but I’m fairly posotive it’s more 
or less right, I prefer the live version than the cd version just sounds 
better to me, anyway enjoy and please rate!

Verse (clean but halfway through the verses quinn kicks the distortion on)
e|---------------------------------------------------|
B|---------------------------------------------------|
G|---------------------------------------------------|
D|-7-7-10-9-12-12-10-10-7-7-5-5-7-7-5-5--------------|
A|-7-7-7--7-10-10-10-10-5-5-5-5-5-5-5-5--------------|
D|-7-7-7--7-10-10-10-10-5-5-5-5-5-5-5-5--------------|

Pre Chorus
e|--------------------------|
B|--------------------------|
G|--------------------------|
D|-1212121212121212---------|
A|-1010101010101010---------|
D|--------------------------|

Chorus
e|---------------------------------------------------------|
B|---------------------------------------------------------|
G|---------------------------------------------------------|
D|-555555555-7777777777-7777777777/999-101010101010--------|
A|-555555555-5555555555-7777777777/999-101010101010--------|
D|-555555555-0000000000-7777777777/999-101010101010--------|

Bridge (guitar 1)
e|-------------------------------------|
B|-------------------------------------|
G|------7------7-----0------0----------|
D|----9------9------9-----12-----------|
A|-10------9------12----15-------------|
D|-------------------------------------|
Bridge (guitar 2) this is played over the above clean as well)
e|-------------------------------------|
B|-------------------------------------|
G|-------------------------------------|
D|-5-------7------7-----10-------------|
A|-5-------5------7-----10-------------|
D|-5-------0------7-----10-------------|
Bridge 2 (this comes in over the other two when Bert starts singing)
e|------------------------------------------------------|
B|------------------------------------------------------|
G|-12121212-14141414-12121212-17171717-16161616---------|
D|-x-x-x-x--x-x-x-x--x-x-x-x--x-x-x-x--x-x-x-x----------|
A|-10101010-12121212-10101010-15151515-14141414---------|
D|------------------------------------------------------|

I’m loving this band at the moment, and trying to tab some of there other 
stuff but it’s quite tough to get through as there is a lot of guitar 
working in each song but I’ll get there eventually, and enjoy this and 
wait for others suckas!!!

| /  slide up
|   slide down
| h  hammer-on
| p  pull-off
| ~  vibrato
| +  harmonic
| x  Mute note

===============================================================================


Текст, аккорды и табулатура для песни "The Taste Of Ink", исполняет "Used".
Используемые в песне аккорды можно найти в разделе Как брать аккорды. Аккорды для шестиструнной гитары. Другие песни можно найти на нашем сайте, воспользовавшись алфавитным указателем вверху страницы.


 
Ошибка в тексте? Выделите ошибку и нажмите Ctrl+Enter