Band:  The Used
Song:  Say days ago
Tuning:  Standard (EADG)

Intro:
G|-0-0-| 
D|-0-0-| x4
A|-0-0-|
E|-0-0-|

Intro Part 2:
G|--------------------------|
D|--------------------------| x4
A|--------------------------|
E|0-0-2-0-0-0-0-2-0-2-0-0-2-|

Verse:
G|-------4h2---------------|
D|22222-------------2------| x3
A|------------0-2-3---3-2--|
E|-------------------------|

Verse part 2:
G|-------4h2-4h2-444-|
D|22222--------------| x1
A|-------------------|
E|-------------------|

Verse:  x3
Verse part 2:  x1

Pre Chorus:
G|------------------|
D|-0h2222220--------| x4
A|------------------|
E|-----------5-4444-|

Chorus:
G|----------------------------------|
D|----------------------------------| x1
A|-7(x16)-5(x16)-3(x16)-2(x8)-0(x8)-|
E|----------------------------------|




Post Chorus:
G|--------------|
D|--------------| x1
A|--------------|
E|2-2-0---2-2-0-|

Verse:  x3
Verse Part 2: x1
Verse:  x3
Verse Part 2: x1
Pre Chorus:  x4
Chorus: x1

Bridge:
G|---------------------------------------------------------|
D|---------------------------------------------------------|x1
A|---------------------------------------------------------|
E|-0~--4—4-4-4~--4~--4—4-4-4~----4-4-4~---4-4-4~----4-4-4~-|

Chorus:  x2

~ = Let note ring out

That's about it..


Текст, аккорды и табулатура для песни "Say Days Ago", исполняет "Used".
Используемые в песне аккорды можно найти в разделе Как брать аккорды. Аккорды для шестиструнной гитары. Другие песни можно найти на нашем сайте, воспользовавшись алфавитным указателем вверху страницы.


 
Ошибка в тексте? Выделите ошибку и нажмите Ctrl+Enter