Artist:  The Used
Title:  Pieces Mended
Album:  The Used
Tuning:  Drop-D (D A D G B E, low to high)
Tabbed By:  Pat Cahill
E-mail:  [email protected]

* = harmonics
~ = let note ring
     
     Intro
E||-0-                                |-0~-
B||-4- play for about 5 seconds then  |-5~- let ring for 2 seconds
G||---                                |----
D||---                                |----
A||---                                |----
D||---                                |----

|-------------------    |------------------------     
|-------------------    |------------------------      
|-------------------    |------------------------      
|-4-4-4-4-4-x-x-x-x- x2 |-0-0-0-0-*3-*3-*3-*3-*3- x2
|-4-4-4-4-4-x-x-x-x-    |-0-0-0-0-*3-*3-*3-*3-*3-
|-4-4-4-4-4-x-x-x-x-    |-0-0-0-0-*3-*3-*3-*3-*3-

|-------------------    |------------------------     
|-------------------    |------------------------      
|-------------------    |------------------------      
|-4-4-4-4-4-x-x-x-x- x2 |-0-0-0-0-*3-*3-*3-*3-*3- x2
|-4-4-4-4-4-x-x-x-x-    |-0-0-0-0-*3-*3-*3-*3-*3-
|-4-4-4-4-4-x-x-x-x-    |-0-0-0-0-*3-*3-*3-*3-*3-
     
     
     Verse 1
|-xxxxxx--0--0-0--0-xxxxxx--0--0-0--0-xxxxxx--0--0--0--0-xxxxxx--0--0--0--0-
|-xxxxxx-10-10-9-10-xxxxxx-10-10-9-10-xxxxxx-14-14-14-14-xxxxxx-17-17-17-17-
|-xxxxxx-------9----xxxxxx-------9----xxxxxx-------14----xxxxxx-------16----
|---------------------------------------------------------------------------
|---------------------------------------------------------------------------
|---------------------------------------------------------------------------

|-xxxxxx--0--0-0--0-xxxxxx--0--0-0--0-xxxxxx--0--0--0--0-xxxxxx--0--0--0--0-
|-xxxxxx-10-10-9-10-xxxxxx-10-10-9-10-xxxxxx-14-14-14-14-xxxxxx-14-14-14-14-
|-xxxxxx-------9----xxxxxx-------9----xxxxxx-------14----xxxxxx-------14----
|---------------------------------------------------------------------------
|---------------------------------------------------------------------------
|---------------------------------------------------------------------------

     
     Chorus 1
|-0-0-0--0-0-0-0--0-0-0-0---0--0--0--0--0--0--0--0-
|-7-7-7--7-7-7-7--9-9-9-9--10-10-10-10-10-10-10-10-
|--------------------------------------------------
|-------------------------------------------------- x4
|--------------------------------------------------
|--------------------------------------------------

|-----------------                                   
|-----------------                                    
|-----------------                     --0-              
|-0-0-0-0-0-0-0-0- 


Текст, аккорды и табулатура для песни "Pieces Mended", исполняет "Used".
Используемые в песне аккорды можно найти в разделе Как брать аккорды. Аккорды для шестиструнной гитары. Другие песни можно найти на нашем сайте, воспользовавшись алфавитным указателем вверху страницы.


 
Ошибка в тексте? Выделите ошибку и нажмите Ctrl+Enter