Box Full Of Sharp Objects
by The Used

Tuning - D A D G B E

Intro
|-----------------------------------------------------------------|
|-----------------------------------------------------------------|
|-----------------------------------------------9--9--9--9--9--9--|
|-4-4-4/7-7-7-7--4-4-42-2-2-2--4--4-4/7-7-7-7--x--x--x--x--x--x--|
|-4-4-4/7-7-7-7--4-4-42-2-2-2--4--4-4/7-7-7-7--7--7--7--7--7--7--|
|-4-4-4/7-7-7-7--4-4-42-2-2-2--4--4-4/7-7-7-7--------------------|

|-----------------------------------------------------------------|
|-----------------------------------------------------------------|
|---------8-8------------------8-8----------8-8-------------------|
|-----6-6-----6-6-x-x------6-6----------6-6-----6-6--4--4--4------|
|-7-7------------------7-7----------7-7--------------4--4--4------|
|----------------------------------------------------4--4--4------|


Verse 1 (0:12)
|-----------------------------------|
|-----------------------------------|
|---------8-8------------------8-8--|
|-----6-6-----6-6-x-x------6-6------| x3
|-7-7------------------7-7----------|            
|-----------------------------------|

|-----------------------------------|
|-----------------------------------|
|----------8-8-8-8-8-8-8------------|
|-----6-6--6-6-6-6-6-6-6------------| x1
|-7-7------7-7-7-7-7-7-7------------|
|-----------------------------------|


Fill (0:20)
|--------------------------------------------------------------------|
|--------------------------------------------------------------------|
|-----8~---------------8------8~-------------------------------------|
|---6----6---6-----6-6------6----6-----------------------------------|
|-7--------7-----7--------7------------------------------------------|
|--------------------------------------------------------------------|


Chorus 1 (0:30)
1X
|--------------------------------------------------------------------|
|--------------------------------------------------------------------|
|--------9-9-9-9-9-9-9-9---------1111111111111111--------------------|
|-4-4-4--x-x-x-x-x-x-x-x--7-7-7---x-x-x-x-x-x-x-x--------------------|
|-4-4-4--7-7-7-7-7-7-7-7--7-7-7---9-9-9-9-9-9-9-9--------------------|
|-4-4-4-------------------7-7-7--------------------------------------|

3X
|--------------------------------------------------------------------|
|--------------------------------------------------------------------|
|--------9-9-9-9-9-9-9-9---------1111111111111111--------------------|
|-4-4-4--9-9-9-9-9-9-9-9--7-7-7--1111111111111111--------------------|
|-4-4-4--7-7-7-7-7-7-7-7--7-7-7---9-9-9-9-9-9-9-9--------------------|
|-4-4-4-------------------7-7-7--------------------------------------|


Verse 2 (0:46) - no guitar


Fill (1:03)
|--------------------------------------------------------------------|
|--------------------------------------------------------------------|
|-----8~---------------8------8~---------------8---------------------|
|---6----6---6-----6-6------6----6---6-----6-6---6-------------------|
|-7--------7-----7--------7--------7-----7---------------------------|
|--------------------------------------------------------------------|


Chorus 2 (1:12)
|--------------------------------------------------------------------|
|--------------------------------------------------------------------|
|--------8--8--8---------9-9-9-9-9-9-9-9---------1111111111111111----|
|-7-7-7--x--x--x--4-4-4--x-x-x-x-x-x-x-x--7-7-7---x-x-x-x-x-x-x-x----|
|-7-7-7--6--6--6--4-4-4--7-7-7-7-7-7-7-7--7-7-7---9-9-9-9-9-9-9-9----|
|-7-7-7-----------4-4-4-------------------7-7-7----------------------|

|-----------------------------------------
|-----------------------------------------
|--------9-9-9-9-9-9-9-9---------8--8--8--
|-4-4-4--9-9-9-9-9-9-9-9--7-7-7--x--x--x--
|-4-4-4--7-7-7-7-7-7-7-7--7-7-7--6--6--6--
|-4-4-4-------------------7-7-7-----------

--------------------------------------------------|
--------------------------------------------------|
-------9-9-9-9-9-9-9-9---------1111111111111111---|
4-4-4--x-x-x-x-x-x-x-x--7-7-7---x-x-x-x-x-x-x-x---|
4-4-4--7-7-7-7-7-7-7-7--7-7-7---9-9-9-9-9-9-9-9---|
4-4-4-------------------7-7-7---------------------|

Interlude (1:26)
|-----|
|-----|
|-8---|keep strumming up and down a bunch of times
|-----|
|-----|
|-----|


Fill (1:46)
|-----------------------------------|
|-----------------------------------|
|-----------------------------------|
|-4-4-4/7-7-7-7--4-4-42-2-2-2------|
|-4-4-4/7-7-7-7--4-4-42-2-2-2------|
|-4-4-4/7-7-7-7--4-4-42-2-2-2------|


Verse 3 (1:50)
|-----------------------------------|
|-----------------------------------|
|---------8-8------------------8-8--|
|-----6-6-----6-6-x-x------6-6------| x3
|-7-7------------------7-7----------|            
|-----------------------------------|

|-----------------------------------|
|-----------------------------------|
|---------8-8-----------------------|
|-----6-6-----6-6-------------------| x1
|-7-7-------------------------------|            
|-----------------------------------|


Fill (1:58)
|--------------------------------------------------------------------|
|--------------------------------------------------------------------|
|-----8~---------------8------8~---------------8---------------------|
|---6----6---6-----6-6------6----6---6-----6-6---6-------------------|
|-7--------7-----7--------7--------7-----7---------------------------|
|--------------------------------------------------------------------|


Chorus 3 (2:10)
|-----------------------------------------
|-----------------------------------------
|--------9-9-9-9-9-9-9-9---------8--8--8--
|-4-4-4--9-9-9-9-9-9-9-9--7-7-7--x--x--x--
|-4-4-4--7-7-7-7-7-7-7-7--7-7-7--6--6--6--
|-4-4-4-------------------7-7-7-----------

--------------------------------------------------|
--------------------------------------------------|
-------9-9-9-9-9-9-9-9---------1111111111111111---|
4-4-4--x-x-x-x-x-x-x-x--7-7-7---x-x-x-x-x-x-x-x---|
4-4-4--7-7-7-7-7-7-7-7--7-7-7---9-9-9-9-9-9-9-9---|
4-4-4-------------------7-7-7---------------------|

End (2:50)
|-----------------------------------|
|-----------------------------------|
|-----------------------------------|
|-4-4-42-2-2-2---------------------|
|-4-4-42-2-2-2---------------------|
|-4-4-42-2-2-2---------------------|



Текст, аккорды и табулатура для песни "Box Full Of Sharp Objects", исполняет "Used".
Используемые в песне аккорды можно найти в разделе Как брать аккорды. Аккорды для шестиструнной гитары. Другие песни можно найти на нашем сайте, воспользовавшись алфавитным указателем вверху страницы.


 
Ошибка в тексте? Выделите ошибку и нажмите Ctrl+Enter