The Used
Box Full Of Sharp Objects
Tuning: Standard

Tabbed By:Dysfunctional03


Intro:
--------------------------------------------------------------------
--------------------------------------------------------------------
----------------------------------------------------9-9-9-9-9-9-----
-4-4-4/7-7-7-7----4-4-4/2-2-2-2----4-4-4/7-7-7-7----x-x-x-x-x-x-----
-4-4-4/7-7-7-7----4-4-4/2-2-2-2----4-4-4/7-7-7-7----7-7-7-7-7-7-----
-2-2-2/5-5-5-5----2-2-2/0-0-0-0----2-2-2/5-5-5-5--------------------

--------------------------------------------------------------------
--------------------------------------------------------------------
----------8-8----------------------8-8---------------------8-8------
-----6-6-------6-6-x-x--------6-6------6-6-x-x---------6-6-----6-6--
-7-7----------------------7-7----------------------7-7--------------
--------------------------------------------------------------------

--------------
--------------
--------------
-4-4-4--------
-4-4-4--------
-2-2-2--------


Verse 1
--------------------------------------------
--------------------------------------------
---------8-8------------------8-8-----------  x3
-----6-6-----6-6-x-x------6-6---------------
-7-7------------------7-7-------------------
--------------------------------------------


-------------------------------------------
-------------------------------------------  
-----------8-8-8-8-8-8-8-------------------  x1 
-----6-6---6-6-6-6-6-6-6-------------------
-7-7-------7-7-7-7-7-7-7-------------------
-------------------------------------------


Pre - Chorus
--------------------------------------------------
--------------------------------------------------
-----8---------------8------8---------------------
---6---6---6-----6-6------6---6-------------------
-7-------7-----7--------7-------------------------
--------------------------------------------------


Chorus 1
---------------------------------------------------------------
---------------------------------------------------------------
---------9-9-9-9-9-9-9-9------------11-11-11-11-11-11-11-11---- x1
-4-4-4---x-x-x-x-x-x-x-x----7-7-7----x--x--x--x--x--x--x--x----
-4-4-4---7-7-7-7-7-7-7-7----7-7-7----9--9--9--9--9--9--9--9----
-2-2-2----------------------5-5-5------------------------------

-----------------------------------------------------------------
-----------------------------------------------------------------
---------9-9-9-9-9-9-9-9------------11-11-11-11-11-11-11-11------ x3
-4-4-4---9-9-9-9-9-9-9-9----7-7-7---11-11-11-11-11-11-11-11------
-4-4-4---7-7-7-7-7-7-7-7----7-7-7----9--9--9--9--9--9--9--9------
-2-2-2----------------------5-5-5--------------------------------

Verse 2 - No Guitar in verse 2

Pre - Chorus
----------------------------------------------------------------
----------------------------------------------------------------
-----8-----------------8-------8----------------8---------------
---6----6---6------6-6-------6---6----6-----6-6----6------------
-7--------7------7---------7--------7-----7---------------------
----------------------------------------------------------------

Chorus 2
---------------------------------------------------------------------------
---------------------------------------------------------------------------
---------8-8-8-----------9-9-9-9-9-9-9-9----------11-11-11-11-11--11-11-11-
-7-7-7---x-x-x---4-4-4---x-x-x-x-x-x-x-x---7-7-7---x--x--x--x--x--x--x--x--
-7-7-7---6-6-6---4-4-4---7-7-7-7-7-7-7-7---7-7-7---9--9--9--9--9--9--9--9--
-5-5-5-----------2-2-2---------------------5-5-5---------------------------

------------------------------------------------------------
------------------------------------------------------------
---------9-9-9-9-9-9-9-9-----------8-8-8--------------------
-4-4-4---9-9-9-9-9-9-9-9---7-7-7---x-x-x--------------------
-4-4-4---7-7-7-7-7-7-7-7---7-7-7---6-6-6--------------------
-2-2-2---------------------5-5-5----------------------------

----------------------------------------------------------------
----------------------------------------------------------------
---------9-9-9-9-9-9-9-9----------11-11-11-11-11-11-11-11-------
-4-4-4---x-x-x-x-x-x-x-x---7-7-7---x--x--x--x--x--x--x--x-------
-4-4-4---7-7-7-7-7-7-7-7---7-7-7---9--9--9--9--9--9--9--9-------
-2-2-2---------------------5-5-5--------------------------------


Interlude
----------------
----------------
-8-------------- Strumming Patterns Not Shown 
-x--------------
-6--------------
----------------

Part After Interlude
------------------------------------
------------------------------------
------------------------------------
-4-4-4/7-7-7-7------4-4-4/2-2-2-2---
-4-4-4/7-7-7-7------4-4-4/2-2-2-2---
-2-2-2/5-5-5-5------2-2-2/0-0-0-0---

Verse 3
----------------------------------------------
----------------------------------------------
---------8-8---------------------8-8---------- x3
-----6-6------6-6-x-x-------6-6---------------
-7-7--------------------7-7-------------------
----------------------------------------------

----------------------------------------------
----------------------------------------------
----------8-8--------------------------------- x1
-----6-6-------6-6----------------------------
-7-7------------------------------------------
----------------------------------------------


Pre - Chorus
----------------------------------------------------------------
----------------------------------------------------------------
-----8-----------------8-------8----------------8---------------
---6----6---6------6-6-------6---6----6-----6-6----6------------
-7--------7------7---------7--------7-----7---------------------
----------------------------------------------------------------

Chorus 3
------------------------------------------------------------
------------------------------------------------------------
---------9-9-9-9-9-9-9-9-----------8-8-8--------------------
-4-4-4---9-9-9-9-9-9-9-9---7-7-7---x-x-x--------------------
-4-4-4---7-7-7-7-7-7-7-7---7-7-7---6-6-6--------------------
-2-2-2---------------------5-5-5----------------------------
------------------------------------------------------------

--------------------------------------------------------------
--------------------------------------------------------------
---------9-9-9-9-9-9-9-9----------11-11-11-11-11-11-11-11-----
-4-4-4---x-x-x-x-x-x-x-x---7-7-7---x--x--x--x--x--x--x--x-----
-4-4-4---7-7-7-7-7-7-7-7---7-7-7---9--9--9--9--9--9--9--9-----
-2-2-2---------------------5-5-5------------------------------

End on this
---------------------------------------
---------------------------------------
---------------------------------------
-4-4-4/2-2-2---------------------------
-4-4-4/2-2-2---------------------------
-2-2-2/0-0-0---------------------------


Текст, аккорды и табулатура для песни "Box Full Of Sharp Objects", исполняет "Used".
Используемые в песне аккорды можно найти в разделе Как брать аккорды. Аккорды для шестиструнной гитары. Другие песни можно найти на нашем сайте, воспользовавшись алфавитным указателем вверху страницы.


 
Ошибка в тексте? Выделите ошибку и нажмите Ctrl+Enter