the used
blue and yellow tab
Tuning: Drop D  

Chorus (And it's all in how you mix the two.....)
------------------------------------------------------------------------------
------------------------------------------------------------------------------
---10-10-10-10-10-9--9----10-10-10-10-10--------------------------------------
---0--0--0--0--0--0--0--0-8--8--8--8--8---------------------------------------
---8--8--8--8--8--7--7--0-8--8--8--8--8---------------------------------------
-0-0--0--0--0--0--0--0--0-8--8--8--8--8---------------------------------------


Bridge     (Well Your never gonna find it...)
----------------------------
----------------------------
----9------9------9------9--
----------------------------
-7-7---7-7----7-7----7-7----
----------------------------

-----------------------------
-----------------------------
----10-----10-----10-----10--
-----------------------------
-8-8---8-8----8-8----8-8-----
-----------------------------
                                                                              
Chorus (Shoulda Done Something......)
------------------------------------------------------------------------------
------------------------------------------------------------------------------
-10-10-10-10-10-12-12-12-12-12--5-5-5-5-5--5-5-5-5-5--------------------------
-8--8--8--8--8--10-10-10-10-10--0-0-0-0-0--3-3-3-3-3--------------------------
-8--8--8--8--8--10-10-10-10-10--0-0-0-0-0--3-3-3-3-3--------------------------
-8--8--8--8--8--10-10-10-10-10--0-0-0-0-0--3-3-3-3-3--------------------------

(echos time with you over and over)
------------------------------------------------------------------------------
------------------------------------------------------------------------------
------------------------------------------------------------------------------
-0-----8h9h8--8-8-8-8-8-------------------------------------------------------
-0-----8h9h8--8-8-8-8-8-------------------------------------------------------
-0-----8h9h8--8-8-8-8-8-------------------------------------------------------


Текст, аккорды и табулатура для песни "Blue And Yellow", исполняет "Used".
Используемые в песне аккорды можно найти в разделе Как брать аккорды. Аккорды для шестиструнной гитары. Другие песни можно найти на нашем сайте, воспользовавшись алфавитным указателем вверху страницы.


 
Ошибка в тексте? Выделите ошибку и нажмите Ctrl+Enter