The Used - A Box Full Of Sharp Objects
Submitted By: SactoDeftonesFan
EMail: [email protected]

Tuning: Drop D (D A D G B E)

This is correct, I am confident in my work, and if you have any questions, 
give me a shout at [email protected][email protected]-----------||
B|------------------|------------------|------------------|------------------||
G|-6-6-6-6-9-9-9-9--|-6-6-6-6-9-9-9-9--|-6-6-6-6-9-9-9-9--|-9-9-9-9-9-9-9-9--||
D|-4-4-4-4-7-7-7-7--|-4-4-4-4-7-7-7-7--|-4-4-4-4-7-7-7-7--|-x-x-x-x-x-x-x-x--||
A|-4-4-4-4-7-7-7-7--|-4-4-4-4-7-7-7-7--|-4-4-4-4-7-7-7-7--|-7-7-7-7-7-7-7-7--||
D|-4-4-4-4-7-7-7-7--|-4-4-4-4-7-7-7-7--|-4-4-4-4-7-7-7-7--|------------------||
Intro

E|-------------------------------|-------------------------------------------||
B|-------------------------------|-------------------------------------------||
G|-----88---------88------88-----|-6-6-6--9-9-9--9-9-9------8----9-----------||
D|---66--66-----66------66--66---|-6-6-6--9-9-9--7-7-7-------6---7-----------||
A|-44------44-44------77------77-|-4-4-4--7-7-7--7-7-7---0h7--7--7-----------||
D|-------------------------------|---------------7-7-7-----------7-----------||
Verse

E|---------------------------------------------------------------------------||
B|---------------------------------------------------------------------------||
G|-6-6-6--9-9-9--9-9-9--11-11-11---6-6-6--9-9-9--9-9-9--8-8-8----------------||
D|-6-6-6--9-9-9--7-7-7--x--x--x----6-6-6--9-9-9--7-7-7--x-x-x----------------||
A|-4-4-4--7-7-7--7-7-7--9--9--9----4-4-4--7-7-7--7-7-7--6-6-6----------------||
D|---------------7-7-7---------------------------7-7-7-----------------------||
1st Chorus

E|---------------------------------------------------------------------------||
B|---------------------------------------------------------------------------||
G|-13------------------------------------------------------------------------||
D|--x------------------------------------------------------------------------||
A|-11------------------------------------------------------------------------||
D|---------------------------------------------------------------------------||
Interlude (Just this chord played quickly over and over)

E|---------------------------------------------------------------------------||
B|---------------------------------------------------------------------------||
G|-6-6-6--9-9-9--9-9-9--8-8-8----6-6-6--9-9-9--9-9-9--11-11-11------------------||
D|-6-6-6--9-9-9--7-7-7--x-x-x----6-6-6--9-9-9--7-7-7--x--x--x------------------||
A|-4-4-4--7-7-7--7-7-7--6-6-6----4-4-4--7-7-7--7-7-7--9--9--9------------------||
D|---------------7-7-7-------------------------7-7-7-----------------------||
2nd Chorus and beyond


Текст, аккорды и табулатура для песни "A Box Full Of Sharp Objects", исполняет "Used".
Используемые в песне аккорды можно найти в разделе Как брать аккорды. Аккорды для шестиструнной гитары. Другие песни можно найти на нашем сайте, воспользовавшись алфавитным указателем вверху страницы.


 
Ошибка в тексте? Выделите ошибку и нажмите Ctrl+Enter