1--2--2--32--02-----3----0----------------------------------
2---3--3---3---3---3----3-3---------------------------------
3----2--2---2---2-0----0---0--------------------------------
4-0-------------------------2^-0----------------------------
5----------------3---2--------------------------------------
6-----------------------------------------------------------

1--2--2--32--02-----3----0---535----------------------------
2---3--3---3---3---3----3-3---------------------------------
3----2--2---2---2-0----0---0----0---------------------------
4-0---------------------------------------------------------
5----------------3---2--------------------------------------
6-----------------------------------------------------------

После этого все играется еще раз боем

He was the wizard of a thous and kings

And I chanced to meet him one night wandering

He told me tales and he drank my wine

Me and my magic man kinda feeling fine 

He had a cloak of gold and eyes of fire

And as he spoke I felt a deep desire

To free the world of its fear and pain

And help the people to feel free again

Why don´t we listen to... the voices in our hearts

Cause then I know we´ll find... we´re not so far... apart

Everybody´s got to be happy...everyone should sing

For we know the joy of life... the peace that love can bring 

So spoke the Wizard in his mountain home

The vision of his wisdom means we´ll never be alone

And now I will dream of my magic night

And the million silver stars that guide me with their light


Текст, аккорды и табулатура для песни "Wizard", исполняет "Uriah Heep".
Используемые в песне аккорды можно найти в разделе Как брать аккорды. Аккорды для шестиструнной гитары. Другие песни можно найти на нашем сайте, воспользовавшись алфавитным указателем вверху страницы.


Слушать онлайн The Wizard


Uriah HeepThe Wizard на Яндекс.Музыке


 
Ошибка в тексте? Выделите ошибку и нажмите Ctrl+Enter