uphill gardeners,enter me.
Tabbed by mertha.  

intro
guitar1 plays:
e-0-0-0-0-0-0-0-0-4-4-4-4-5-5-5-5
b--------------------------------
g--------------------------------    (X4 for intro)
d--------------------------------
a--------------------------------
E-0-0-0-0-0-0-0-0-4-4-4-4-5-5-5-5

guitar2 plays (comes in on 3rd bar of intro)
e---------------------------------
b-12--12--12--12--11--11--10--10--
g---------------------------------
d---------------------------------
a---------------------------------
E---------------------------------

verse  
(same as intro)hes got a brand new thong...hes got a nice firm 
ass, ass, ass.....
e------------------------------------
b------------------------------------
g------------------------------------
d-2-2-2-2-2-2-2-2-6-6-6-6-7-7-7-7---- (X2)
a-2-2-2-2-2-2-2-2-6-6-6-6-7-7-7-7----
E-0-0-0-0-0-0-0-0-4-4-4-4-5-5-5-5----
        
but i dont wanna wait it anymore
e---------------------------------------------
b---------------------------------------------
g----------------------------------8b~~~~~~~~~
d-9-9-9-9-9-9-9-9-7-7-7-7-7-7-7-7-------------
a-9-9-9-9-9-9-9-9-7-7-7-7-7-7-7-7-------------
E-7-7-7-7-7-7-7-7-5-5-5-5-5-5-5-5-------------

chorus:
           E5            B5
i think its time to enter
           F#m5           A5
i think its time to enter me 
             E5             B5
so i wont try and block you    A5
anymore        anymore
E5      Ab5   A5    E5       Ab5   A5
middle
F#m5      Ab5    A5    (and so on)


Текст, аккорды и табулатура для песни "Enter Me", исполняет "Uphill Gardeners".
Используемые в песне аккорды можно найти в разделе Как брать аккорды. Аккорды для шестиструнной гитары. Другие песни можно найти на нашем сайте, воспользовавшись алфавитным указателем вверху страницы.


 
Ошибка в тексте? Выделите ошибку и нажмите Ctrl+Enter