unwritten law
your my angel
demo
standard tuning (eadgbe)

Intro:(Bass)
G|-8-----8-----8----6-----6-----6----4-----4-----4---|
D|---9-9--—9-9---9----8-8---8-8---8----6-6---6-6---6-|
A|---------------------------------------------------|
E|---------------------------------------------------|

G|-3-----3-----3----4-----4-----4----3-----3-----3---|
D|---4-4---4-4---4----2-2---2-2---2----4-4---4-4---4-|
A|---------------------------------------------------|
E|---------------------------------------------------|

G|-4-----4-----4---4-------3-------|
D|---2-2---2-2---2---6-6-6---4-4-4-|
A|---------------------------------|
E|---------------------------------|


Intro: (guitar)
e|-------------------------------------------------|
B|-------------------------------------------------|
G|-------------------------------------------------|
D|--9------------------8-9-8-4----8-9-8-2----6-4---|
A|--x------------------x-x-x-x----x-x-x-2----x-x---|
E|—-7ring out----------6-7-6-2----6-7-6-0----4-2---|

Intro 2: (guitar)
e|-------------------------|
B|-------------------------|
G|-8--11--8--6--4--8--6----|
D|-x--x---x--x--x--x--x----|
A|-6--9---6--4--2--6--4----| 
E|-------------------------|


VERSE:
B        F#        E          F#           B
Looking into your eyes I see all I want to be
F#         E   F#
And I don't want it to end
B          F#          E             F#     B
If I could only put to words the way I see you
F#          E            F#
I only know I had an angel with me now


e|-------------------------|
B|-------------------------|
G|--4-4-4------3-4-3-------|
D|--4-4-4----4-------4-----|
A|--2-2-2------------------|
E|---------4---------------|


CHORUS:
E  F#           G#m         F#         E
When I fall asleep you're all that I see
F#     G#m         F#         E 
Youre in my thoughts and all of my prayers
F#           G#m         F#          E
I wish I could be all that you mean to me

Guitar 2: (come in after thoughts)
e|--------------------------------|
B|--------------------------------|
G|--9---8---6---11--4---9---8---6-|
D|--------------------------------|
A|--7---6---4---9---2---7---6---4-|
E|--------------------------------|
  

Bridge: (My angel without wings…)
e|--------------------|
b|--------------------|
G|--4-3-4---6-4-3-----|
D|--------------------|
A|--2-1-2---4-2-1-----| 
E|--------------------|
   

Guitar 1:
E                       F#                       E
I wish that you could see all that you mean to me
F#
But I could never find the words to tell you

Guitar 2:
e|-----------------------------------------|
B|-----------------------------------------|
G|---4-3--------4-6---4-3------4-3--4-3----|
D|-------4h6p4-----2-----4--------4----4---|
A|-----------------------------------------|
E|-----------------------------------------|

Chorus 2x


Outro:
e|------------|
B|------------|
G|--4---------|
D|--x---------|
A|--2---------| (fade out)
E|------------|

anthony curtis


Текст, аккорды и табулатура для песни "Your My Angel", исполняет "Unwritten Law".
Используемые в песне аккорды можно найти в разделе Как брать аккорды. Аккорды для шестиструнной гитары. Другие песни можно найти на нашем сайте, воспользовавшись алфавитным указателем вверху страницы.


 
Ошибка в тексте? Выделите ошибку и нажмите Ctrl+Enter