Elva - Unwritten Law
-------------------------------------------------------------------------------

Tabbed by:Adrian Rivera   
			 This should be accurate, I figured out 
 			 the entire song on my own after I couldn't 
                         find the tab on the internet.  
                         I think it's pretty damn good.  I hope you agree.
Email:[email protected]  Listen to the song to get the hang of it.Awesome song.

Tuning:Standard
INTRO
e|------------------------------------------------------32-------------------|
B|----------------------1--3-333------------------------33-------------------|
G|---2/4/2-0------0-----0--0-000------2/4/2-0------0-------------------------|
D|------------------2-------------------------------2----------2/4-0---------|
A|--------------3------------------------------------------------------------|
E|----------------------------------------------0----------------------------|
                                                         VERSE
e|-------------------------------------------32----------|-------------------|
B|-----------1--3-333------------------------33----------|--------1-----3-1--|
G|---0-------0--0-000------2/4/2-0------0----------------|----0----------0-0-|
D|-----2---------------------------------2--------2/4-0--|------2----2----2-2|
A|-3-----------------------------------------------------|-3-----------------|
E|-----------------------------------0-------------------|-------------------|
                                                               CHORUS
e|--------------3---2--------------------------------------3---|-------------|
B|0-----0--------3---3---------1----3---1---0--------0------3--|-------3-----|
G|-------0--------0---0-------0-0----0---0------------0------0-|-0-----2-----|
D|----2----2-----------------2---2----2---2------------2-------|-2-----0-----|
A|---2--------------------0-3---------------------2------------|-2-----x-----|
E|-0--------------------------------------------0--------------|-0-----2-----|
 /___________play twice______________/
e|-3-----0-----0------------0-------0--|---2--2--222--------0----------------|
B|-3-----1-----1-----------------------|---3--3--333----------0---0----------|
G|-0-X7--2-X3--0-X4-------0-------0----|---2--2--222------0-----0------------|
D|-0-----2-----2-----------------------|---0--0--000--------------play 3X----|
A|-x-----0-----3-----------------------|-------------------------------------|
E|-3-------------------0-------0-------|---------------0---------------------|

e|---------------------------------------------------------------------------|
B|---1----------3-----------1---3-------------------1----------3-------------|
G|----2--0--------4---4------0---0--0----------------2--0--------4-4---------|
D|--2---------4-----------2---2---2-----2---2------2---------4---------------|
A|-0---0----2-------2----3-------------3---2------0----0---2------2----------|
E|---------------------------------------------------------------------------|

e|-0------------|------------------------------------------------------------|
B|-1------------|------------------------------------------------------------|
G|-0~~let ring--|Start From the top again^------------------------------ ----|
D|-2------------|------------------------------------------------------------|
A|-3------------|------------------------------------------------------------|
E|--------------|------------------------------------------------------------|
  Then comes the sort of Solo Portion: play after second verse 
e|---------------------------------------------------------------------------|
B|---------------------------------------------------------------------------|
G|----play Intro for duration of solo, then play the Chorus in it's entirety-|
D|---------------------------------------------------------------------------|
A|---------------------------------------------------------------------------|
E|---------------------------------------------------------------------------|
  Outro(guitar only):simply PLAY THE INTRO ONCE MORE and end on:
e|------------32--3~2--------------------------------------------------------|
B|------------33--3~3-let ring-----------------------------------------------|
G|---------------------------------------------------------------------------|
D|---------------------------------------------------------------------------|
A|---------------------------------------------------------------------------|
E|---------------------------------------------------------------------------|


| /  slide up
|   slide down
| h  hammer-on
| p  pull-off
| ~  vibrato
| +  harmonic
| x  Mute note

===================================================================jdge ruffneck


Текст, аккорды и табулатура для песни "Elva", исполняет "Unwritten Law".
Используемые в песне аккорды можно найти в разделе Как брать аккорды. Аккорды для шестиструнной гитары. Другие песни можно найти на нашем сайте, воспользовавшись алфавитным указателем вверху страницы.


 
Ошибка в тексте? Выделите ошибку и нажмите Ctrl+Enter