IM TABING THIS SONG BECAUSE IVE NEVER
SEEN A TAB OF THIS DO YET. SO HERE IT GOES.

INTRO GUITAR 1&2

guitar 1
D----------------------------------------
A----------------------------------------
F----------------------------------------
C----------------------------------------
G----------------------------------------
D-7--00--6--00--5--00--3--00--5--0--6--0-

guitar 2
D----------------------------------------
A----------------------------------------
F----------------------------------------
C--9--8--7---5--7------------------------
G-----------7----------------------------
D----------------------------------------

D----------------------------------------
A----------------------------------------
F----------------------------------------
C----------------------------------------
G--22--22--22--22----------2-------------
D--00--00--00--00----3--0----------------

VERSE GUITAR 1&2
D----------------------------------------
A----------------------------------------
F-------------------------7---9----------
C-22-22-55-77-99-------------------------
G-22-22-55-77-99-------------------------
D-00-00-33-55-77-------------------------

CHORUS GUITAR 1&2
D----------------------------------------
A----------------------------------------
F--999999-----------------999999--888888-
C-XXXXXX--999999-----XXXXXX--XXXXXX------
G-777777-XXXXXX-----777777---666666------
D-------------777777---------------------

AFTER CHORUS GO BACK TO INTRO.

AFTER SECOND TIME OF INTRO JUST DO............
D--7--00--6--00--5--00--3--00--5--0--6--0-
A-----------------------------------------
F-----------------------------------------
C-----------------------------------------
G-----------------------------------------
D-----------------------------------------

AND THATS ALL YOU NEED TO KNOW TO PLAY
THE WHOLE SONG.
EASY RIGHT


Текст, аккорды и табулатура для песни "Babalon", исполняет "Unwritten Law".
Используемые в песне аккорды можно найти в разделе Как брать аккорды. Аккорды для шестиструнной гитары. Другие песни можно найти на нашем сайте, воспользовавшись алфавитным указателем вверху страницы.


 
Ошибка в тексте? Выделите ошибку и нажмите Ctrl+Enter