Artist:  The Unseen
Song:  What Are You Gonna Do?
Album:  So This is Freedom?
Track:  1
Tabbed by:  Rick ([email protected])
AIM:  unhlax23


Chords:

E5   (022xxx)
B5   (x244xx)
C5   (x355xx)
D5   (x577xx)
E2   (x799xx)
F#2  (x10-12-12xx)
F2   (x9-11-11xx)


Intro/Chorus

E|-----------------------------------------------------------------|
B|-----------------------------------------------------------------|
G|----------4-4---4-5-5---5-4-4---4-7-7-7-7-7-7-7-7-5-5-5-5-5-5-5-5|
D|--2-2---2-4-4---4-5-5---5-4-4---4-7-7-7-7-7-7-7-7-5-5-5-5-5-5-5-5|
A|--2-2---2-2-2---2-3-3---3-2-2---2-5-5-5-5-5-5-5-5-3-3-3-3-3-3-3-3|
E|--0-0---0--------------------------------------------------------|

Verse:

E|-------------------------------------------|
B|-------------------------------------------|
G|-9---------------9-9-9-9-9-9-9-9-9--12-11--|
D|-9-x alot, then--9-9-9-9-9-9-9-9-9--12-11--|
A|-7---------------7-7-7-7-7-7-7-7-7--10--9--|
E|-------------------------------------------|

Interlude:

E|--------------------------------------|
B|--------------------------------------|
G|-------------5------------------------|
D|-2-----5-----5--5--2--2-2-2-2-2-2-2-2-|
A|-2-----5-----3--5--2--2-2-2-2-2-2-2-2-|
E|-0-----3--------3--0--0-0-0-0-0-0-0-0-|
                        |-------------|
                           palm mute
cont.
E|--------------------------------------------------------------------|
B|--------------------------------------------------------------------|
G|-------------------------------------------------5-5-5-5-5----------|
D|-2-2-2-2-2-2-2-2-2-2-2-2-5-5-5-5-5-5-5-5-5-5-5-5-5-5-5-5-5-5-5-5-5-5|
2|-2-2-2-2-2-2-2-2-2-2-2-2-5-5-5-5-5-5-5-5-5-5-5-5-3-3-3-3-3-5-5-5-5-5|
E|-0-0-0-0-0-0-0-0-0-0-0-0-3-3-3-3-3-3-3-3-3-3-3-3-----------3-3-3-3-3|


That should be it, the verse may not be right, but it sounds good to me,
but let me know anyway.  Ask me questions and rate this please.  Later.


Текст, аккорды и табулатура для песни "What Are You Gonna Do", исполняет "Unseen".
Используемые в песне аккорды можно найти в разделе Как брать аккорды. Аккорды для шестиструнной гитары. Другие песни можно найти на нашем сайте, воспользовавшись алфавитным указателем вверху страницы.


 
Ошибка в тексте? Выделите ошибку и нажмите Ctrl+Enter