Song: Useless Regrets
Band: The Unseen
Tabbed by: Ramone
Email: [email protected]

Tuning: Standard

Intro: Guitar 1

e|-------------------------------------------------|
B|-------------------------------------------------|
G|-------------------------------------------------|
D|--------------------------------5-5-5554-4-4444--| (4X)
A|--------------------------------5-5-5554-4-4444--|
E|--77-99-1010-1212-1010-99-77-55-3-3-3332-2-2222--|

Intro: Guitar 2

e|-------------------------------------------------|
B|-------------------------------------------------|
G|--4----------------------------------------------|
D|--4-----------------------------5-5-5554-4-4444--| (2X)
A|--2-----------------------------5-5-5554-4-4444--|
E|--------------------------------3-3-3332-2-2222--|

e|----------------------------------------|
B|----------------------------------------|
G|--4-4-4444-4-4-4444---------------------|
D|--4-4-4444-4-4-4444--5-5-5555-4-4-4444--| (2X)
A|--2-2-2222-2-2-2222--5-5-5555-4-4-4444--|
E|---------------------3-3-3333-2-2-2222--|

Chorus: Guitar 1&2

e|---------------------------------------|
B|---------------------------------------|
G|--4-4-4444-4-4-4444-7-7-7777-----------|
D|--4-4-4444-4-4-4444-7-7-7777-7-7-7777--| (4X)
A|--2-2-2222-2-2-2222-5-5-5555-7-7-7777--|
E|-----------------------------5-5-5555--|

Verse: Guitar 1&2

e|--------------------------------------------------------------------------
B|--------------------------------------------------------------------------
G|-----------7-7-7-77-----------7-7-7-77-----------7-7-7-77--9-9-9999999999-
D|--4-4-444--7-7-7-77--4-4-444--7-7-7-77--4-4-444--7-7-7-77--9-9-9999999999-
A|--4-4-444--5-5-5-55--4-4-444--5-5-5-55--4-4-444--5-5-5-55--7-7-7777777777-
E|--2-2-222------------2-2-222------------2-2-222---------------------------

Chorus: Guitar 1&2

e|---------------------------------------|
B|---------------------------------------|
G|--4-4-4444-4-4-4444-7-7-7777-----------|
D|--4-4-4444-4-4-4444-7-7-7777-7-7-7777--| (4X)
A|--2-2-2222-2-2-2222-5-5-5555-7-7-7777--|
E|-----------------------------5-5-5555--|


Verse: Guitar 1&2 (2X)

e|--------------------------------------------------------------------------
B|--------------------------------------------------------------------------
G|-----------7-7-7-77-----------7-7-7-77-----------7-7-7-77--9-9-9999999999-
D|--4-4-444--7-7-7-77--4-4-444--7-7-7-77--4-4-444--7-7-7-77--9-9-9999999999-
A|--4-4-444--5-5-5-55--4-4-444--5-5-5-55--4-4-444--5-5-5-55--7-7-7777777777-
E|--2-2-222------------2-2-222------------2-2-222---------------------------

End: Guitar 1

e|-------------------------------------------------|
B|-------------------------------------------------|
G|-------------------------------------------------|
D|--------------------------------5-5-5554-4-4444--| (4X)
A|--------------------------------5-5-5554-4-4444--|
E|--77-99-1010-1212-1010-99-77-55-3-3-3332-2-2222--|

e|------------------------------------------|
B|------------------------------------------|
G|------------------------------------------|
D|--------------------------------5-5-5554--|
A|--------------------------------5-5-5554--|
E|--77-99-1010-1212-1010-99-77-55-3-3-3332--|

End: Gutar 2

e|-------------------------------------------------|
B|-------------------------------------------------|
G|--4----------------------------------------------|
D|--4-----------------------------5-5-5554-4-4444--| (2X)
A|--2-----------------------------5-5-5554-4-4444--|
E|--------------------------------3-3-3332-2-2222--|

e|-------------------------------------------------|
B|-----------------88--77----------77--------------|
G|-44--66--77--99----------99--77------99--77--66--|
D|-------------------------------------------------| (2X)
A|-------------------------------------------------|
E|-------------------------------------------------|

e|------------------------------------------|
B|------------------------------------------|
G|--4---------------------------------------|
D|--4-----------------------------5-5-5554--|
A|--2-----------------------------5-5-5554--|
E|--------------------------------3-3-3332--|

Any Questions, Commants, Requests, email me
[email protected]


Текст, аккорды и табулатура для песни "Useless Regrets", исполняет "Unseen".
Используемые в песне аккорды можно найти в разделе Как брать аккорды. Аккорды для шестиструнной гитары. Другие песни можно найти на нашем сайте, воспользовавшись алфавитным указателем вверху страницы.


 
Ошибка в тексте? Выделите ошибку и нажмите Ctrl+Enter