-----------------------------------------------------------------
STAND UP AND FIGHT - Unseen
-----------------------------------------------------------------
Album: Complete Singles Collection
Tabbed by: Jonathon Kay

Tuning: standard

Intro:
e|-------------------------------------------|
B|-------------------------------------------|
G|7-----7-----7-----7------------------------|
D|7-----7-----7-----7------------------------|
A|5-----5-----5-----5------------------------|
E|-------------------------------------------|

Verse:
e|-------------------------------------------|
B|-------------------------------------------|
G|777-----101010-777-------------------------|
D|777-888-101010-777-------------------------|
A|555-888--8-8-8-555-------------------------|
E|----666------------------------------------|

Chorus:
e|-------------------------------------------|
B|-------------------------------------------|
G|6-8-10-11-6-8-4-6--------------------------|
D|6-8-10-11-6-8-4-6--------------------------|
A|4-6--8--9-4-6-2-4--------------------------|
E|-------------------------------------------|

Breakdown:
e|-------------------------------------------|
B|-------------------------------------------|
G|8------4------6-------1111-1010------------|
D|8-(x8)-4-(x8)-6-(x12)-1111-1010------------|
A|6------2------4--------9-9--8-8------------|
E|-------------------------------------------|

Solo 1:
e|---------------------------------------------------------------|
B|10~-----10h13p10h13p10h13p10h13p10h13p10h13p10-15~-------------|
G|---------------------------------------------------------------|
D|---------------------------------------------------------------|
A|---------------------------------------------------------------|
E|---------------------------------------------------------------|

Solo 2:
e|---------------------------------------------------------------|
B|---------------------------------------------------------------|
G|666666668888888810101010101010101111111111111111---------------|
D|---------------------------------------------------------------|
A|---------------------------------------------------------------|
E|---------------------------------------------------------------|


e|---------------------------------------------------------------|
B|---------------------------------------------------------------|
G|66666666888888884444444466666666-------------------------------|
D|---------------------------------------------------------------|
A|---------------------------------------------------------------|
E|---------------------------------------------------------------|

Ending:
e|----------|
B|----------|
G|8---------|
D|8---|
A|6---------|
E|----------|

| h hammer-on
| p pull-off
| ~ vibrato

Order:

Intro x1
Verse x6
Chorus x2
Verse x6
Chorus x2
Breakdown x6
Solo 1 x1
Verse x4
Solo 2 x2
Ending x1


Текст, аккорды и табулатура для песни "Stand Up And Fight", исполняет "Unseen".
Используемые в песне аккорды можно найти в разделе Как брать аккорды. Аккорды для шестиструнной гитары. Другие песни можно найти на нашем сайте, воспользовавшись алфавитным указателем вверху страницы.


 
Ошибка в тексте? Выделите ошибку и нажмите Ctrl+Enter