Artist:  The Unseen
Song:  Live in Fear
Album:  The Anger and the Truth
Track:  1

Chords:

A5  (x022xx) or (577xxx)
F5  (133xxx)
G5  (355xxx)
D5  (x577xx)

Intro:

E|----------------------------------------------------------------|
B|----------------------------------------------------------------|
G|-2-2-2-2-2-2---------------------------2-2-2-2-2-2--------------|
D|-2-2-2-2-2-2-3-3-3-3-3-3--5-5-5-5-5-5--2-2-2-2-2-2--------------|
A|-0-0-0-0-0-0-3-3-3-3-3-3--5-5-5-5-5-5--0-0-0-0-0-0--------------|
E|-------------1-1-1-1-1-1--3-3-3-3-3-3---------------------------|

Verse:  play the intro, but listen to the song to figure out where to palm mute the chords

Chorus:

E|----------------------------------------------------------------|
B|----------------------------------------------------------------|
G|-2-2-2--2-2-2--5-5-5---------2-2-2--2-2-2--5-5-5--7-7-7---------|
D|-2-2-2--2-2-2--5-5-5-5-5-5---2-2-2--2-2-2--5-5-5--7-7-7---------|
A|-0-0-0--0-0-0--3-3-3-5-5-5---0-0-0--0-0-0--3-3-3--5-5-5---------|
E|---------------------3-3-3--------------------------------------|
Cont.
E|----------------------------------------------------------------|
B|----------------------------------------------------------------|
G|-2-2-2--2-2-2--5-5-5--------------------------------------------|
D|-2-2-2--2-2-2--5-5-5-5-5-5--3-3-3-3-3-3-3-5-5-5-5-5-5-5---------|
A|-0-0-0--0-0-0--3-3-3-5-5-5--3-3-3-3-3-3-3-5-5-5-5-5-5-5---------|
E|---------------------3-3-3--1-1-1-1-1-1-1-3-3-3-3-3-3-3---------|


Outro:  / = slide

E|----x-x------x-x----x-x------x-x----x-x-------------------------|
B|----x-x------x-x----x-x------x-x----x-x-------------------------|
G|--2-x-x--4/5-x-x----x-x--4/5-x-x----x-x--4/5--------------------|
D|--2-x-x--4/5-x-x--3-x-x--4/5-x-x--5-x-x--4/5--------------------|
A|--0-x-x--2/3-x-x--3-x-x--2/3-x-x--5-x-x--2/3--------------------|
E|----x-x------x-x--1-x-x------x-x--3-x-x-------------------------|


Just end the song on an A5 and you're done.  This is my favorite Unseen song.
Do me a favor and rate this.  Later.


Текст, аккорды и табулатура для песни "Live In Fear", исполняет "Unseen".
Используемые в песне аккорды можно найти в разделе Как брать аккорды. Аккорды для шестиструнной гитары. Другие песни можно найти на нашем сайте, воспользовавшись алфавитным указателем вверху страницы.


 
Ошибка в тексте? Выделите ошибку и нажмите Ctrl+Enter