Song: Live in Fear
Band: The Unseen
Tabbed by: Ramone
Email: [email protected]

Tuning: Standard Tuning, Set Tone Up a 
        Little, Makes it Sounds Good

Intro: Guitar 1

e|--------------------------------------------|
B|--------------------------------------------|
G|--2-2-2222-------------------------2-2-2-2--|
D|--2-2-2222---3-3-3333---5-5-5555---2-2-2-2--| (4X) and last time it sows 
A|--0-0-0000---3-3-3333---5-5-5555---0-0-0-0--|          at the end
E|-------------1-1-1111---3-3-3333------------|

Intro: Guitar 2

e|--------------------------------------------|
B|--------------------------------------------|
G|--2-2---4-6--------4-4--------4-6--2-2-2-2--|
D|--2-2---4/6--3-3---4/6--5-5---4/6--2-2-2-2--| (4X) and last time it sows 
A|--0-0---2-4--3-3---2-4--5-5---2-4--0-0-0-0--|          at the end
E|-------------1-1--------3-3-----------------|

Verse: Guitar 1

e|---------------------------------------------------------|
B|---------------------------------------------------------|
G|--2-22-2-22-2---2-22-2-22-2------------------------------|
D|--2-22-2-22-2---2-22-2-22-2---3-33-3-33-3---5-55-5-55-5--| (6X)
A|--0-00-0-00-0---0-00-0-00-0---3-33-3-33-3---5-55-5-55-5--|
E|----**---**-------**---**-----1-11-1-11-1---3-33-3-33-3--|
                                  **   **      **   **
Verse: Guitar 2

e|---------------------------------------------------------|
B|---------------------------------------------------------|
G|---------------------------------------------------------|
D|---------------------------------------------------------|
A|---------------------------------------------------------|
E|---------------------------------------------------------|

e|---------------------------------------------------------|
B|---------------------------------------------------------|
G|--2------------------------------------------------------|
D|--2------------------------------------------------------|
A|--0------------------------------------------------------|
E|---------------------------------------------------------|

e|---------------------------------------------------------|
B|---------------------------------------------------------|
G|--2-22-2-22-2---2-22-2-22-2------------------------------|
D|--2-22-2-22-2---2-22-2-22-2---3-33-3-33-3---5-55-5-55-5--| (2X)
A|--0-00-0-00-0---0-00-0-00-0---3-33-3-33-3---5-55-5-55-5--|
E|----**---**-------**---**-----1-11-1-11-1---3-33-3-33-3--|
                                 **   **       **   **

e|---------------------------------------------------------|
B|---------------------------------------------------------|
G|--9----9----9-7-9----9----9-7-9----9----9-7-9----9----9--|
D|---------------------------------------------------------| (2X)
A|---------------------------------------------------------|
E|---------------------------------------------------------|

Chorus: Guiar 1&2 

e|--------------------------------------------------|
B|--------------------------------------------------|
G|--22-2--22-2--55-5--------22-2--22-2--55-5--7--7--|_ _ _
D|--22-2--22-2--55-5--5--5--22-2--22-2--55-5--7--7--|     
A|--00-0--00-0--33-3--5--5--00-0--00-0--33-3--5--5--|      
E|--------------------3--3--------------------------|       
                                                             (2X)
e|--------------------------------------------------|       /
B|--------------------------------------------------|      /
G|--22-2--22-2--55-5--------------------------------|_ _ _/ 
D|--22-2--22-2--55-5--5--5--33333333---55555555-----|      
A|--00-0--00-0--33-3--5--5--33333333---55555555-----|
E|--------------------3--3--11111111---55555555-----|

Verse: Guitar 1

e|---------------------------------------------------------|
B|---------------------------------------------------------|
G|--2-22-2-22-2---2-22-2-22-2------------------------------|
D|--2-22-2-22-2---2-22-2-22-2---3-33-3-33-3---5-55-5-55-5--| (4X)
A|--0-00-0-00-0---0-00-0-00-0---3-33-3-33-3---5-55-5-55-5--|
E|----**---**-------**---**-----1-11-1-11-1---3-33-3-33-3--|
                                  **   **      **   **
Verse: Guitar 2

e|-----------------------------------------|
B|-----------------------------------------|
G|--2--2--0-2--2--2--2/5--5--5--5/7--7--7--|
D|-----------------------------------------| (2X)
A|-----------------------------------------|
E|-----------------------------------------|

e|---------------------------------------------------------|
B|---------------------------------------------------------|
G|--9----9----9-7-9----9----9-7-9----9----9-7-9----9----9--|
D|---------------------------------------------------------| (2X)
A|---------------------------------------------------------|
E|---------------------------------------------------------|

Chorus: Guiar 1&2 

e|--------------------------------------------------|
B|--------------------------------------------------|
G|--22-2--22-2--55-5--------22-2--22-2--55-5--7--7--|_ _ _
D|--22-2--22-2--55-5--5--5--22-2--22-2--55-5--7--7--|     
A|--00-0--00-0--33-3--5--5--00-0--00-0--33-3--5--5--|      
E|--------------------3--3--------------------------|       
                                                             (2X)
e|--------------------------------------------------|       /
B|--------------------------------------------------|      /
G|--22-2--22-2--55-5--------------------------------|_ _ _/ 
D|--22-2--22-2--55-5--5--5--33333333---55555555-----|      
A|--00-0--00-0--33-3--5--5--33333333---55555555-----|
E|--------------------3--3--11111111---55555555-----|


End: Guitar 1

e|--------------------------------------------|      |---------|
B|--------------------------------------------|      |---------|
G|--2-2-2222-------------------------2-2-2-2--|      |--2-2-2--|
D|--2-2-2222---3-3-3333---5-5-5555---2-2-2-2--| (4X) |--2-2-2--|
A|--0-0-0000---3-3-3333---5-5-5555---0-0-0-0--|      |--0-0-0--|
E|-------------1-1-1111---3-3-3333------------|      |---------|

End Guitar 2

e|--------------------------------------------|      |---------|
B|--------------------------------------------|      |---------|
G|--2--2-4-6--------4-4-------4-6---2--2-4-6--|      |--2-2-2--|
D|--2--2-4/6---3--3-4/6---5-5-4/6---2--2-4/6--| (4X) |--2-2-2--|
A|--0--0-2-4---3--3-2-4---5-5-2-4---0--0-2-4--|      |--0-0-0--|
E|-------------1--1-------3-3-----------------|      |---------|

Any Questions, Comments, Corrections, Send me an Email [email protected]


Текст, аккорды и табулатура для песни "Live In Fear", исполняет "Unseen".
Используемые в песне аккорды можно найти в разделе Как брать аккорды. Аккорды для шестиструнной гитары. Другие песни можно найти на нашем сайте, воспользовавшись алфавитным указателем вверху страницы.


 
Ошибка в тексте? Выделите ошибку и нажмите Ctrl+Enter