Artist:  The Unseen
Song:  Cultural Genocide
Album:  So This is Freedom?
Track:  10
Tabbed by:  Rick ([email protected])
AIM:  unhlax23


Chords:

C#5  (x466xx)
E2   (x799xx)
B5   (799xxx)
F#5  (244xxx)
F#2  (x9-11-11xx)

Intro/Verse:  strumming not shown at all

E|---------|
B|---------|
G|-6-9-----|
D|-6-9-9-4-|
A|-4-7-9-4-|
E|-----7-2-|

Chorus:

E|-----|
B|-----|
G|-9-11|
D|-9-11|
A|-7--9|
E|-----|


Bridge:

E|----------------------------------------------------------------------------|
B|----------------------------------------------------------------------------|
G|----------13-11-13----------13-11-13-------------16-14-16----------16-14-16-|
D|-11-11-11----------11-11-11-------------14-14-14----------14-14-14----------|
A|----------------------------------------------------------------------------|
E|----------------------------------------------------------------------------|
cont.
E|---------------------------------------------------------|
B|---------------------------------------------------------|
G|-------11-9-11-------11-9-11-----------------------------|
D|-9-9-9---------9-9-9---------------11-9-11-------11-9-11-|
A|-----------------------------9-9-9---------9-9-9---------|
E|---------------------------------------------------------|

That's all.  Later.


Текст, аккорды и табулатура для песни "Cultural Genocide", исполняет "Unseen".
Используемые в песне аккорды можно найти в разделе Как брать аккорды. Аккорды для шестиструнной гитары. Другие песни можно найти на нашем сайте, воспользовавшись алфавитным указателем вверху страницы.


 
Ошибка в тексте? Выделите ошибку и нажмите Ctrl+Enter