Unloco
Failure
by Jarrod Tamez

intro (acoustic)
d-----------------------------------------------------------------
a-----------------------------------------------------------------
f---------------------3--3-3---------------------2-2--2-----------
c-5--5--555555--5--5--555555-3--3--333333--3--3--333333-----------
g-5--5--555555--5--5--555555-3--3--333333--3--3--333333-----------
C-5--5--555555--5--5--555555-3--3--333333--3--3--333333-----------
repeat x1

d-----------------------------------------------------------------
a-----------------------------------------------------------------
f-2--2--222222-5--5--555555---------------------------------------
c-2--2--222222-5--5--555555---------------------------------------
g-0--0--000000-3--3--333333---------------------------------------
C-----------------------------------------------------------------

chorus x2
d-----------------------------------------------------------------
a-----------------------------------------------------------------
f-12-12-12-12-12-12-12-12-12-12-12-15-15-15-15-15-15--------------
c-x--x--x--x--x--x--x--x--x--x--x--x--x--x--x--x--x---------------
g-10-10-10-10-10-10-10-10-10-10-10-13-13-13-13-13-13--------------
C-----------------------------------------------------------------

d-----------------------------------------------------------------
a-----------------------------------------------------------------
f-14-14-14-14-14-14-10-10-10-10-10-10-9-9-9-9-9-9-----------------
c-x--x--x--x--x--x--x--x--x--x--x--x--x-x-x-x-x-x-----------------
g-12-12-12-12-12-12-8--8--8--8--8--8--7-7-7-7-7-7-----------------
C-----------------------------------------------------------------

d-----------------------------------------------------------------
a-----------------------------------------------------------------
f-----------------------------------------------------------------
c-8-888h10-10101010/12--------------------------------------------
g-8-888h10-10101010/12--------------------------------------------
C-8-888h10-10101010/12--------------------------------------------

verse
d-----------------------------------------------------------------
a-----------------------------------------------------------------
f-------7-7----------7-7-----------5-5----------5-5---------------
c-----------8------------8-------------3------------333/555/66/8--
g-----------------------------------------------------------------
C-5-5-5--------5-5-5---------3-3-3--------3-3-3-------------------
  ^ ^ ^        ^ ^ ^         ^ ^ ^        ^ ^ ^

then the corus again

bridge
d-----------------------------------------------------------------
a-----------------------------------------------------------------
f-----------------------------------------------------------------
c---12-12-12-12----12-12-12-12-12p10-10-10-10----10-10-10-10------
g---12-12-12-12----12-12-12-12-12p10-10-10-10----10-10-10-10------
C---12-12-12-12----12-12-12-12-12p10-10-10-10----10-10-10-10------
x2

d-----------------------------------------------------------------
a-----------------------------------------------------------------
f--------------------------------14-14-14------------------------
c--8-8h10-12p10p8-12-12-12-12-14-14-14-14------------------------
g--8-8----8-------10-10-10-10-12-12-12-12------------------------
C--8-8----8-------10-10-10-10-12-12-12-12------------------------

then the intro once
fill
d----------
a----------
f----------
c-xh3------
g-xh3------
C-xh3------
then the chorus x4


Текст, аккорды и табулатура для песни "Failure", исполняет "Unloco".
Используемые в песне аккорды можно найти в разделе Как брать аккорды. Аккорды для шестиструнной гитары. Другие песни можно найти на нашем сайте, воспользовавшись алфавитным указателем вверху страницы.


 
Ошибка в тексте? Выделите ошибку и нажмите Ctrl+Enter