UFO - Too Hot To Handle
                        From the album Lights Out
                           Tabbed by Joe Weldinger
[email protected]


       w     w     w     w     w     w     w     w       q  q  h        
G---|--r--|--r--|--r--|--r--|--r--|--r--|--r--|--r--||---------r--|-----
D---|--e--|--e--|--e--|--e--|--e--|--e--|--e--|--e--||*--------e--|-----
A---|--s--|--s--|--s--|--s--|--s--|--s--|--s--|--s--||*--7--7--s--|-----
E---|--t--|--t--|--t--|--t--|--t--|--t--|--t--|--t--||---------t--|-----
                                                                        

    q  q  h     q  q  h     q  q  h     q  q  h     q  q  h     q  q    
G---------r--|--------r--|--------r--|--------r--|--------r--|----------
D---------e--|--------e--|--------e--|--------e--|--------e--|----------
A---------s--|--5--5--s--|--7--7--s--|--7--7--s--|--------s--|--5--5----
E---5--5--t--|--------t--|--------t--|--------t--|--5--5--t--|----------
                                                                        

    h     q  q  h     q  q  e  e  e  e     q  q  e  e  e  e     q  q    
G---r--|--------r--|--------------------|--------------------|----------
D---e--|--------e--|--------------------|--------------------|----------
A---s--|--7--7--s--|--7--7--7--5--7--5--|--------------------|----------
E---t--|--------t--|--------------------|--5--5--5--3--5--3--|--5--5----
                                                                        

    e  e  e  e     q  q  e  e  e  e     q  q  e  e  e  e     q  q  e    
G---------------|--------------------|--------------------|-------------
D---------------|--------------------|--------------------|-------------
A------------5--|--7--7--7--5--7--5--|--7--7--7--5--7--5--|-------------
E---5--3--5-----|--------------------|--------------------|--5--5--5----
                                                                        

    e  e  e     q  q  e  e  e  e     q  q  e  e  e  e   2x  e  e  e     
G------------|--------------------|---------------------||--------------
D------------|--------------------|--------------------*||--------------
A------------|-----------------5--|--7--7--7--5--7--5--*||--------------
E---3--5--3--|--5--5--5--3--5-----|---------------------||--7--7--7-----
                                                                        

    q  q  e     q  q  e  Q     e  e  e  q  q  e     e  e  H     e  e    
G------------|--------------|--------------------|-----------|----------
D------------|--------------|--------------------|-----------|----------
A---------5--|--5--5--------|--------------------|-----------|----------
E---7--5-----|--------5--5--|--7--7--7--7--5--3--|--3--3--5--|--7--7----
                                                                        

    e  q  q  e     q  q  e  Q     e  e  q  q  e  e     e  H  e          
G---------------|--------------|--------------------|--------r--||------
D---------------|--------------|--------------------|--------e--||*-----
A------------5--|--5--5--------|--------------------|--------s--||*-----
E---7--7--5-----|--------5--5--|--3--3--3--3--3--5--|--5--5--t--||------
                                                                        

    e  e  e  e  e  e  e  e  e  e  e  q  Q   8x  e  e  e  q  q  e        
G-------------------------------------------||--------------------|-----
D------------------------------------------*||--------------------|-----
A------------------------------------5--7--*||-----------------5--|-----
E---7--7--7--7--7--7--7--7--7--7--7---------||--7--7--7--7--5-----|-----
                                                                        

    q  q  e  Q     e  e  e  q  q  e     e  e  H     e  e  e  q  q  e    
G---------------|--------------------|-----------|----------------------
D---------------|--------------------|-----------|----------------------
A---5--5--------|--------------------|-----------|-----------------5----
E---------5--5--|--7--7--7--7--5--3--|--3--3--5--|--7--7--7--7--5-------
                                                                        

       q  q  e  Q     e  e  q  q  e  e     e  H  e     e  e  e  q  q    
G---|--------------|--------------------|--------r--|-------------------
D---|--------------|--------------------|--------e--|-------------------
A---|--5--5--------|--------------------|--------s--|-------------------
E---|--------5--5--|--3--3--3--3--3--5--|--5--5--t--|--7--7--7--7--5----
                                                                        

    e     q  q  e  Q     e  e  e  q  q  e     e  e  H     e  e  e  q    
G------|--------------|--------------------|-----------|----------------
D------|--------------|--------------------|-----------|----------------
A---5--|--5--5--------|--------------------|-----------|----------------
E------|--------5--5--|--7--7--7--7--5--3--|--3--3--5--|--7--7--7--7----
                                                                        

    q  e     q  q  e  Q     e  e  q  q  e  e     e  H  e     e  e  e    
G---------|--------------|--------------------|--------r--|-------------
D---------|--------------|--------------------|--------e--|-------------
A------5--|--5--5--------|--------------------|--------s--|-------------
E---5-----|--------5--5--|--3--3--3--3--3--5--|--5--5--t--|--7--7--7----
                                                                        

    e  e  e  e  e     e  e  e  e  q  q     q  q  h     q  q  h     q    
G------------------|-----------------r--|--------r--|--------r--|-------
D------------------|-----------------e--|--------e--|--------e--|-------
A------------------|-----------------s--|--7--7--s--|--------s--|--5----
E---7--7--7--7--7--|--7--7--7--7--7--t--|--------t--|--5--5--t--|-------
                                                                        

    q  h     q  q  h     q  q  h     q  q  h     q  q  h     q  q  h    
G------r--|--------r--|--------r--|--------r--|--------r--|--------r----
D------e--|--------e--|--------e--|--------e--|--------e--|--------e----
A---5--s--|--7--7--s--|--7--7--s--|--------s--|--5--5--s--|--7--7--s----
E------t--|--------t--|--------t--|--5--5--t--|--------t--|--------t----
                                                                        

       q  q  e  e  e  e     q  q  e  e  e  e     q  q  e  e  e  e       
G---|--------------------|--------------------|--------------------|----
D---|--------------------|--------------------|--------------------|----
A---|--7--7--7--5--7--5--|--------------------|-----------------5--|----
E---|--------------------|--5--5--5--3--5--3--|--5--5--5--3--5-----|----
                                                                        

    q  q  e  e  e  e     q  q  e  e  e  e     q  q  e  e  e  e     q    
G---------------------|--------------------|--------------------|-------
D---------------------|--------------------|--------------------|-------
A---7--7--7--5--7--5--|--7--7--7--5--7--5--|--------------------|-------
E---------------------|--------------------|--5--5--5--3--5--3--|--5----
                                                                        

    q  e  e  e  e     e  e  e  e  e  e  e  e     q  q  e  e  e  e       
G------------------|--5--6--7--8--9--9--9--9--|--------------------|----
D------------------|--------------------------|--------------------|----
A---------------5--|--------------------------|--7--7--7--5--7--5--|----
E---5--5--3--5-----|--------------------------|--------------------|----
                                                                        

    q  q  e  e  e  e     q  q  e  e  e  e     q  q  e  e  e  e     q    
G---------------------|--------------------|--------------------|-------
D---------------------|--------------------|--------------------|-------
A---------------------|-----------------5--|--7--7--7--5--7--5--|--7----
E---5--5--5--3--5--3--|--5--5--5--3--5-----|--------------------|-------
                                                                        

    q  e  e  e  e     q  q  e  e  e  e     q  q  e  e  e  e     q  q    
G------------------|--------------------|--------------------|----------
D------------------|--------------------|--------------------|----------
A---7--7--5--7--5--|--------------------|-----------------5--|--7--7----
E------------------|--5--5--5--3--5--3--|--5--5--5--3--5-----|----------
                                                                        

    e  e  e  e     q  q  e  e  e  e     q  q  e  e  e  e     q  q  e    
G---------------|--------------------|--------------------|-------------
D---------------|--------------------|--------------------|-------------
A---7--5--7--5--|--7--7--7--5--7--5--|--------------------|-------------
E---------------|--------------------|--5--5--5--3--5--3--|--5--5--5----
                                                                        

    e  e  e     q  q  e  e  e  e     e  e  e  e  e  e  e  e     e  e    
G------------|--------------------|--------------------------|----------
D------------|--------------------|--------------------------|----------
A---------5--|--7--7--7--5--7--5--|--7--7--7--7--7--7--7--7--|----------
E---3--5-----|--------------------|--------------------------|--5--5----
                                                                        

    e  e  e  e  e  e     e  e  e  e  e  e  e  e                         
G---------------------|--------------------------||---------------------
D---------------------|--------------------------||---------------------
A---------------------|--------------------5--7--||---------------------
E---5--5--5--5--5--5--|--5--5--5--5--5--5--------||---------------------
                                                                        



========================================================================
==                       TABLATURE EXPLANATION                        ==
========================================================================

----------                ----------                ----t---
----5h8--- Hammeron       ----(8)--- Ghost          ----6--- Tap
----------                ---------- Note           --------
----5p8--- Pulloff        ----------                --------

----------                ----------                -----p--
----5/8--- Slide Up       -----x---- Dead           -----7-- Pop
----------                ---------- Note           --s-----
----58--- Slide Down     ----------                --5----- Slap 

----------                ||------|| Repeat         --------
----5~~~-- Vibrato        ||*----*||                ---5^--- Bend
----------                ||*----*||                --------
----------                ||------||                --------

----------                ----------                --------
-4:------- Time           ----------                --------
-4:------- Signature      ----------                --------
----------                ----------                --------

Rhythm:
  w = whole note            W = dotted whole
  h = half note             H = dotted half
  q = quarter note          Q = dotted quarter
  e = eighth note           E = dotted eighth
  s = sixteenth note        S = dotted sixteenth
  t = 32nd note             T = dotted 32nd
  x = 64th note             X = dotted 64th
  ^ = triplet

========================================================================
==               Created with BUCKET O' TAB for Windows               ==
==                  For more info email [email protected]                   ==
========================================================================


Текст, аккорды и табулатура для песни "Too Hot To Handle", исполняет "Ufo".
Используемые в песне аккорды можно найти в разделе Как брать аккорды. Аккорды для шестиструнной гитары. Другие песни можно найти на нашем сайте, воспользовавшись алфавитным указателем вверху страницы.


 
Ошибка в тексте? Выделите ошибку и нажмите Ctrl+Enter