The wild, the willing, and the innocent by UFO
Standard Tuning

G:----------|----------|----------|----------|
D:----------|----------|----------|----------|
A:--3----5--|--5----5--|-2---2---3|----------|_______________________
E:----------|----------|----------|-3---3---5|                       |
                                                                     |
G:----------|----------|----------|----------|----------|----------| |_x2
D:----------|----------|----------|----------|----------|----------|_| 
A:--3----5--|--5----5--|-2---2---3|----------|----------|----------|
E:----------|----------|----------|--5----3--|3--3--3--3|3--3--3--3|

G:----------|----------|----------|----------|
D:----------|----------|----------|----------|
A:----------|----------|----------|----------|__
E:0--0--0--0|0--0--0--0|0--0--0--0|0--0--0--0|  | 
                                                |__x3
G:----------|----------|----------|----------|  |
D:----------|----------|----------|----------|__|  
A:----------|----------|----------|------2--2|
E:5--5--5--5|5--5--5--5|5--5--5--5|5--5------|


G:----------|----------|----------|----------|
D:----------|----------|----------|----------|
A:----------|----------|----------|----------|
E:0--0--0--0|0--0--0--0|0--0--0--0|0--0--0--0|
                                                
G:----------|----------|----------|----------| 
D:----------|----------|----------|----------|
A:----------|----------|----------|----------|
E:5--5--5--5|5--5--5--5|5--5--5--5|5--5--5--5|

G:----------|----------|----------|----------|----------|
D:----------|----------|----------|----------|----------|__
A:--1----2--|2--2--2--2|2--2--2--2|2--2--2--2|2--2------|  |
E:----------|----------|----------|----------|------3--2|  |
                                                           |__x3
G:----------|----------|----------|----------|             | 
D:----------|----------|----------|----------|_____________|
A:----------|----------|----------|----------|
E:0--0--0--0|0--0--0--0|0--0--0--0|0--0--0--0|

G:----------|----------|----------|----------|----------|
D:----------|----------|----------|----------|----------|
A:--1----2--|2--2--2--2|2--2--2--2|2--2--2--2|2--0~-----|
E:----------|----------|----------|----------|----------|

(1.52)
G:----------|----------|----------|----------|
D:----------|----------|----------|----------|
A:----------|----------|----------|----------|__
E:0--0--0--0|0--0--0--0|0--0--0--0|0--0--0--0|  | 
                                                |__x3
G:----------|----------|----------|----------|  |
D:----------|----------|----------|----------|__|  
A:----------|----------|----------|------2--2|
E:5--5--5--5|5--5--5--5|5--5--5--5|5--5------|

G:----------|----------|----------|----------|
D:----------|----------|----------|----------|
A:----------|----------|----------|----------|
E:0--0--0--0|0--0--0--0|0--0--0--0|0--0--0--0|
                                                
G:----------|----------|----------|----------| 
D:----------|----------|----------|----------|
A:----------|----------|----------|----------|
E:5--5--5--5|5--5--5--5|5--5--5--5|5--5--5--5|

G:----------|----------|----------|----------|----------|
D:----------|----------|----------|----------|----------|__
A:--1----2--|2--2--2--2|2--2--2--2|2--2--2--2|2--2------|  |
E:----------|----------|----------|----------|------3--2|  |
                                                           |__x3
G:----------|----------|----------|----------|             | 
D:----------|----------|----------|----------|_____________|
A:----------|----------|----------|----------|
E:0--0--0--0|0--0--0--0|0--0--0--0|0--0--0--0|

G:----------|----------|----------|----------|----------|
D:----------|----------|----------|----------|----------|
A:--1----2--|2--2--2--2|2--2--2--2|2--2--2--2|2--0~-----|
E:----------|----------|----------|----------|----------|

(3.10)
G:----------|----------|----------|----------|
D:----------|----------|----------|----------|
A:--3----5--|--5----5--|-2---2---3|----------|_______________________
E:----------|----------|----------|-3---3---5|                       |
                                                                     |
G:----------|----------|----------|----------|----------|----------| |_x2
D:----------|----------|----------|----------|----------|----------|_| 
A:--3----5--|--5----5--|-2---2---3|----------|----------|----------|
E:----------|----------|----------|--5----3--|3--3--3--3|3--3--3--3|

G:----------|----------|----------|----------|
D:----------|----------|----------|----------|
A:----------|----------|----------|----------|__
E:0--0--0--0|0--0--0--0|0--0--0--0|0--0--0--0|  | 
                                                |__x3
G:----------|----------|----------|----------|  |
D:----------|----------|----------|----------|__|  
A:----------|----------|----------|------2--2|
E:5--5--5--5|5--5--5--5|5--5--5--5|5--5------|

G:----------|----------|----------|----------|
D:----------|----------|----------|----------|
A:----------|----------|----------|----------|
E:0--0--0--0|0--0--0--0|0--0--0--0|0--0--0--0|
                                                
G:----------|----------|----------|----------| 
D:----------|----------|----------|----------|
A:----------|----------|----------|----------|
E:5--5--5--5|5--5--5--5|5--5--5--5|5--5--5--5|

G:----------|----------|----------|----------|----------|
D:----------|----------|----------|----------|----------|__
A:--1----2--|2--2--2--2|2--2--2--2|2--2--2--2|2--2------|  |
E:----------|----------|----------|----------|------3--2|  |
                                                           |__x3
G:----------|----------|----------|----------|             | 
D:----------|----------|----------|----------|_____________|
A:----------|----------|----------|----------|
E:0--0--0--0|0--0--0--0|0--0--0--0|0--0--0--0|

G:----------|----------|----------|----------|----------|
D:----------|----------|----------|----------|----------|
A:--1----2--|2--2--2--2|2--2--2--2|2--2--2--2|2--0~-----|
E:----------|----------|----------|----------|----------|

Thanks, please rate after you learn it. 
Tabbed by:
_TheBassist01_


Текст, аккорды и табулатура для песни "The Wild The Willing And The Innocent", исполняет "Ufo".
Используемые в песне аккорды можно найти в разделе Как брать аккорды. Аккорды для шестиструнной гитары. Другие песни можно найти на нашем сайте, воспользовавшись алфавитным указателем вверху страницы.


 
Ошибка в тексте? Выделите ошибку и нажмите Ctrl+Enter