UFO let it roll
Tabbed by Scott Bennett

Distorted opening and then...
|---------------------------------------------|
|---------------------------------------------|
|---7--7--xx--7--7--xx--7--7--xx--7--7---5----|
|---7--7--xx--7--7--xx--7--7--xx--7--7---5----|
|---5--5--xx--5--5--xx--5--5--xx--5--5---3----|
|---------------------------------------------|
Repeat untill
Verse begins

|---------------------------------------------|
|---------------------------------------------|
|---5--10--xxxx-10--xxxx-10-------------------|
|---5--10--xxxx-10--xxxx-10-------------------|
|---3--8---xxxx--8---xxxx--8------------------|
|---------------------------------------------|
Repeat over breaking with short solo and continue

Interlude
|-----------------------------------------------------------------------------------------------------------|
|-----------------------------------------------------------------------------------------------------------|
|-----------------------------------------------------------------------------------------------------------|
|----------1-1----------3-3----------1-1----------3-1-----------1-1----------3-3----------1-1----------6--3-|
|-1--3-4-------1--3-4-------1--3-4------1--3-4------4-3-1-3-------1--3-4-------1--3-4------1--3-4--------4--|
|-----------------------------------------------------------------------------------------------------------|

|-------------------------------------------------------------------------------------------------------|
|-------------------------------------------------------------------------------------------------------|
|-------------------------------------------------------------------------------------------------------|
|-1-1----------3-3----------1-1----------3-1-----------1-1----------3-3----------1-1--------------------|
|------1--3-4-------1--3-4------1--3-4------4-3-1-3-------1--3-4-------1--3-4-------1--3-4-6-8-10-11-12-|
|-------------------------------------------------------------------------------------------------------|

Then soloey break thing..
1st guitarist plays this over and over

|-----------------------------------------------------------------------|
|-----------------------------------------------------------------------|
|----------------------9------------------------------------------------|
|-12---9--------9-------12--11------11-11-------------------------------|
|----------9--9----9-------------12----------12--7--7--7--5--7--4--4--0-|
|-----------------------------------------------------------------------|

Shenker plays a solo over the top..

|-14-12------------------------------------------------------------|
|---------14-12--10--10--------------------------------------------|
|---------------------------9--9--9--11--13--13h14p13-11-13-9b(11)-|
|------------------------------------------------------------------|
|------------------------------------------------------------------|
|------------------------------------------------------------------|

Plays that section Twice then straight after the 2nd plays this...

|--------------------------------------------------------------------------------------------11b(13)--13b(14)r13b(14)|
|--------------------------------------------------------------------------------------------------------------------|
|-14b(16)-16-14------------------14b(16)---9b(11)--7-6---------9s11-14-11----9-11-14---------------------------------|
|------------------16-14b(16)-12----------------------------7--------------------------------------------------------|
|-----------------------------------------------------------------4~-------------------------------------------------|
|--------------------------------------------------------------------------------------------------------------------|

|13b-13b-12h14p12-12-14-12------------------------------------------------------------------------------------------------------------|
|--------------------------------13b(15)-11----------------------------13b(15)-13-------------------------------15----------18b(20)-18|
|----------------------------------------------12p10---------------------------------14-11------------------------16b(18)-14----------|
|------------------------------------------------------12p10--------------------------------12-10-8----8-10-12------------------------|
|--------------------------------------------------------------12p10----------------------------------10------------------------------|
|-------------------------------------------------------------------------------------------------------------------------------------|

|------------------13b(15)-11-13-----------------------------------------------9-9h10p9-7----------------
|------------------------------------13b(15)p11-------------------------10-12-------------7--------------
|--------------------------------------------------12------------------11-------------------7------------
|---9-9-9-9-9------------------------------------------7-7-7-7-7-------------------------------7-7-7-7-7-
|---9-9-9-9-9------------------------------------------7-7-7-7-7-------------------------------7-7-7-7-7-
|---7-7-7-7-7------------------------------------------5-5-5-5-5-------------------------------9-9-9-9-9-

|------------------13b(15)-11-13-----------------------------------------
|------------------------------------13b(15)p11--------------------------
|--------------------------------------------------12--------------------
|---9-9-9-9-9------------------------------------------7-7-7-7-7---------
|---9-9-9-9-9------------------------------------------7-7-7-7-7---------
|---7-7-7-7-7------------------------------------------5-5-5-5-5---------

Couldnt do the rest but ive think ive done enough enjoy!


Текст, аккорды и табулатура для песни "Let It Roll", исполняет "Ufo".
Используемые в песне аккорды можно найти в разделе Как брать аккорды. Аккорды для шестиструнной гитары. Другие песни можно найти на нашем сайте, воспользовавшись алфавитным указателем вверху страницы.


 
Ошибка в тексте? Выделите ошибку и нажмите Ctrl+Enter