Artist          	  UFO
        Album                   The Best Of UFO
        Title                   Doctor Doctor
        Year                    1979
        Bass Played By  	  Pete Way
        Tabbed by               Andy Rolland
        Tuning          	  Standard
        Tempo                   120 bpm approx

This is the version that I have on CD but the live version has a lot more
verses

Intro
    G|-----------------|-----------------|-----------------|-----------------|
    D|-----------------|-----------------|-----------------|-----------------|
    A|-5---------------|-1---------------|-3---------------|-5---------------|
    E|-----------------|-----------------|-----------------|-----------------|

    G|-----------------|-----------------|-----------------|-----------------|
    D|-----------------|-----------------|-----------------|-----------------|
    A|-5---------------|-1---------------|-----------------|-----------------|
    E|-----------------|-----------------|-1---------------|-3-------5-------|

    G|-----------------|-----------------|-----------------|-----------------|
    D|-----------------|-----------------|-----------------|-----------------|
    A|-5---5-5-5---5-5-|-1---1-1-1---1-1-|-----------------|-3---3-3-3---3-3-|
    E|-----------------|-----------------|-1---1-1-1---1-1-|-----------------|

    G|-----------------|-----------------|-----------------|-----------------|
    D|-----------------|-----------------|-----------------|-----------------|
    A|-5---5-5-5---5-5-|-1---1-1-1---1-1-|-----------------|-----------------|
    E|-----------------|-----------------|-1---1-1-1---1-1-|-3---3-3-5---5-5-|

Chorus

    G|-----------------|-----------------|-----------------|-----------------|
    D|-----------------|-----------------|-----------------|-----------------|
    A|-5---5-5-5---5-5-|-1---1-1-1---1-1-|-----------------|-3---3-3-3---3-3-|
    E|-----------------|-----------------|-1---1-1-1---1-1-|-----------------|

    G|-----------------|-----------------|-----------------|-----------------|
    D|-----------------|-----------------|-----------------|-----------------|
    A|-5---5-5-5---5-5-|-1---1-1-1---1-1-|-----------------|-----------------|
    E|-----------------|-----------------|-1---1-1-1---1-1-|-3---3-3-5---5-5-|

Verse 1

    G|-----------------|-----------------|-----------------|-----------------|
    D|-----------------|-----------------|-----------------|-----------------|
    A|-5---5-5-5---5-5-|-1---1-1-1---1-1-|-----------------|-3---3-3-3---3-3-|
    E|-----------------|-----------------|-1---1-1-1---1-1-|-----------------|

    G|-----------------|-----------------|-----------------|-----------------|
    D|-----------------|-----------------|-----------------|-----------------|
    A|-5---5-5-5---5-5-|-1---1-1-1---1-1-|-----------------|-----------------|
    E|-----------------|-----------------|-1---1-1-1---1-1-|-3---3-3-5---5-5-|

Bridge
                                                                                        Play 2 times
    G|------------------|-----------------|-----------------|------------------|
    D|o-----------------|-----------------|-----------------|-----------------o|
    A|o-5-------1-------|-3---------------|-----------------|-5-5-5-5-5-5-5-5-o|
    E|------------------|---------1-------|-3-------5-------|------------------|



    G|-----------------|-----------------|-----------------|-----------------|
    D|-----------------|-----------------|-----------------|-----------------|
    A|-5---5-5-5---5-5-|-1---1-1-1---1-1-|-----------------|-3---3-3-3---3-3-|
    E|-----------------|-----------------|-1---1-1-1---1-1-|-----------------|

    G|-----------------|-----------------|-----------------|-----------------|
    D|-----------------|-----------------|-----------------|-----------------|
    A|-5---5-5-5---5-5-|-1---1-1-1---1-1-|-----------------|-----------------|
    E|-----------------|-----------------|-1---1-1-1---1-1-|-3---3-3-5---5-5-|

Chorus

    G|-----------------|-----------------|-----------------|-----------------|
    D|-----------------|-----------------|-----------------|-----------------|
    A|-5---5-5-5---5-5-|-1---1-1-1---1-1-|-----------------|-3---3-3-3---3-3-|
    E|-----------------|-----------------|-1---1-1-1---1-1-|-----------------|

    G|-----------------|-----------------|-----------------|-----------------|
    D|-----------------|-----------------|-----------------|-----------------|
    A|-5---5-5-5---5-5-|-1---1-1-1---1-1-|-----------------|-----------------|
    E|-----------------|-----------------|-1---1-1-1---1-1-|-3---3-3-5---5-5-|

Verse 2

    G|-----------------|-----------------|-----------------|-----------------|
    D|-----------------|-----------------|-----------------|-----------------|
    A|-5---5-5-5---5-5-|-1---1-1-1---1-1-|-----------------|-3---3-3-3---3-3-|
    E|-----------------|-----------------|-1---1-1-1---1-1-|-----------------|

    G|-----------------|-----------------|-----------------|-----------------|
    D|-----------------|-----------------|-----------------|-----------------|
    A|-5---5-5-5---5-5-|-1---1-1-1---1-1-|-----------------|-----------------|
    E|-----------------|-----------------|-1---1-1-1---1-1-|-3---3-3-5---5-5-|

Bridge
                                                                                        Play 2 times
    G|------------------|-----------------|-----------------|------------------|
    D|o-----------------|-----------------|-----------------|-----------------o|
    A|o-5-------1-------|-3---------------|-----------------|-5-5-5-5-5-5-5-5-o|
    E|------------------|---------1-------|-3-------5-------|------------------|

    G|-----------------|-----------------|-----------------|-----------------|
    D|-----------------|-----------------|-----------------|-----------------|
    A|-5---5-5-5---5-5-|-1---1-1-1---1-1-|-----------------|-3---3-3-3---3-3-|
    E|-----------------|-----------------|-1---1-1-1---1-1-|-----------------|

    G|-----------------|-----------------|-----------------|-----------------|
    D|-----------------|-----------------|-----------------|-----------------|
    A|-5---5-5-5---5-5-|-1---1-1-1---1-1-|-----------------|-----------------|
    E|-----------------|-----------------|-1---1-1-1---1-1-|-3---3-3-5---5-5-|

Chorus
                                                                                  Repeat till fade
    G|------------------|-----------------|-----------------|-----------------|
    D|o-----------------|-----------------|-----------------|-----------------|
    A|o-5---5-5-5---5-5-|-1---1-1-1---1-1-|-----------------|-3---3-3-3---3-3-|
    E|------------------|-----------------|-1---1-1-1---1-1-|-----------------|

    G|-----------------|-----------------|-----------------|------------------|
    D|-----------------|-----------------|-----------------|-----------------o|
    A|-5---5-5-5---5-5-|-1---1-1-1---1-1-|-----------------|-----------------o|
    E|-----------------|-----------------|-1---1-1-1---1-1-|-3---3-3-5---5-5--|



Текст, аккорды и табулатура для песни "Doctor Doctor", исполняет "Ufo".
Используемые в песне аккорды можно найти в разделе Как брать аккорды. Аккорды для шестиструнной гитары. Другие песни можно найти на нашем сайте, воспользовавшись алфавитным указателем вверху страницы.


 
Ошибка в тексте? Выделите ошибку и нажмите Ctrl+Enter