Вступление:

  Hm                A(V)              G                F#
|-------------7-9-|--------10r9-7---|------------7-9-|--------10r9-7---|
|-----------7-----|-----------------|----------8-----|---------------7-|
|-------6/7-------|-----------------|------6/7-------|-----------------|
|-9---------------|---------------9-|----------------|-----------------|
|-----------------|-----------------|----------------|-----------------|
|-----------------|-----------------|----------------|-----------------|

  Hm                A(V)              G                F#                Hm
|-10------------9-|--------10r9-7---|------------7-9-|--------10r9-7---|-14--14----|
|-------------7---|-----------------|----------8-----|---------------7/|---12------|
|-----------7-----|-----------------|------6/7-------|-----------------|-----------|
|-------8/9-------|---------------9-|----------------|-----------------|-----------|
|-----------------|-----------------|----------------|-----------------|-----------|
|-----------------|-----------------|----------------|-----------------|-----------|

  Hm              A
Три солнца в голове
             G
Выйдут на порог
            F#
Заспанного мира.

Три сердца в глубине
Застучат в ответ
Утреннему свету.

   D                      F#m
В день, когда слетит с небес
             G
Ветренным пером
            Em  A
Медленная птица,

В тот день, когда отступит тень,
Ты сможешь разглядеть
Ее огненные крылья.

Проигрыш: D F#m G Gm

Кто крикнет мне в окно:
Стой, не уходи,
Подожди немного!

Кто, кто из нас теперь
Сможет удержать
Медленную птицу?

В тот день, когда никто
Не вылетит в окно,
И не расправит крылья,

В тот день кто, взглянув наверх,
Скажет мне Постой,
Подожди, не падай!

   D                      F#
В день, когда слетит с небес
             G
Ветренным пером
            Gm
Медленная птица...

Проигрыш: Hm A G F#

  D               F#m
Три солнца в голове
             G
Выйдут на порог
            Em  A
Заспанного мира.

  D                F#m
Три сердца в глубине
              G
Застучат в ответ
            Em  A  D
Утреннему свету.


Текст, аккорды и табулатура для песни "Три солнца", исполняет "Ю-Питер".
Используемые в песне аккорды можно найти в разделе Как брать аккорды. Аккорды для шестиструнной гитары. Другие песни можно найти на нашем сайте, воспользовавшись алфавитным указателем вверху страницы.


Слушать онлайн Три солнца


Ю-ПитерТри солнца на Яндекс.Музыке


 
Ошибка в тексте? Выделите ошибку и нажмите Ctrl+Enter