В.Бутусов / В.Бутусов
E||--------8--7--5--3--2-0--2--3--2--3--5-----------|
B||--3=>8-------------------------------------------|
G||-------------------------------------------------|
D||-------------------------------------------------|
A||-------------------------------------------------|
E||-------------------------------------------------|
||--------8--7--5--3--2--2--3--0-------------------|
||--3=>8-------------------------------------------|
||-------------------------------------------------|
||-------------------------------------------------|
||-------------------------------------------------|
||-------------------------------------------------|



E||--5---------8--7--5-----|--5---------8--7--5-----|
B||---------5-----------8--|---------5-----------8--|
G||------------------------|------------------------|
D||------------------------|------------------------|
A||------------------------|------------------------|
E||------------------------|------------------------|

--7--------10--8--7--5--|--7---------10--8--7--5--|
--------5---------------|---------5--------------|
------------------------|------------------------|
------------------------|------------------------|
------------------------|------------------------|
------------------------|------------------------|

------------8--7--5-----|--5---------8--7--5-----|
--8------5-----------8--|---------5-----------8--|
------------------------|------------------------|
------------------------|------------------------|
------------------------|------------------------|
------------------------|------------------------|

--7~-------7--7------||
---------------------||
---------------------||
---------------------||
---------------------||
---------------------||
 
Аккорд "W" 
:::::: 1
:::::: 2
::ООО: 3
:::::: 4






Dm------------------W
Я шел к себе домой, я шел по мокрым лужам,
C-----------------------Gm 
По скользской мостовой, ногами снег куртюжил
Gm----------------Dm-Gm------Dm
А мокрый снег падал, а я шел домой,
Gm---------Dm----Gm--------Dm--------Gm
По зимнему саду, по пустой мостовой.
---F---------------------B---------F---B
Он шел со мной рядом, шпионил за мной,
--------------F---------C----------Dm
Следил за мной взглядом, бесшумный конвой.

Gm---------------C----Dm 
И вот я стою, на краю снегопада,
--------------Gm
С неба падает снег
C-------------Dm
Значит небу так надо
 
--------Dm--------------W--------------Dm 
В это трудно поверить, я вернулся домой,
----W-------------Dm---W-------------------Dm--W 
Ты открыла мне двери, снег вошел вслед за мной,
---------F-------------B-----------F----B
И вдруг снег растаял, увидел тебя,
---------------F------C---------------Dm
На пороге остались, только капли дождя

Нас уносит река, плавных весел волнами,
Будто кто-то открыл все небесные краны,
Мы стоим на краю, на краю водопада,
С неба льется вода,
Значит небу так надо.

                

	
	
	        
Комментарий автора: Аккорд W это как aккорд B но без бaррэ Бой, дворский…{вниз вниз вверх вверх вниз вверх}

Текст, аккорды и табулатура для песни "Песня идущего домой", исполняет "Ю-Питер".
Используемые в песне аккорды можно найти в разделе Как брать аккорды. Аккорды для шестиструнной гитары. Другие песни можно найти на нашем сайте, воспользовавшись алфавитным указателем вверху страницы.


Слушать онлайн Песня идущего домой


Ю-ПитерПесня идущего домой на Яндекс.Музыке


 
Ошибка в тексте? Выделите ошибку и нажмите Ctrl+Enter