(Вступление:)
D-3-3---3-3---3--------------------------------------------------
G---------------------------------0-0---0-0---0---2-2---2-2---2--
B-----------------3-3---3-3---3----------------------------------
G-2-3-2-3-2-3-2-3-2-3-2-3-2-3-2-3-2-3-2-3-2-3-2-3-2-3-2-3-2-3-2-3
B        D            Gm  D             B
 моя душа поет со мной то смутно то светло
            D            Gm   D          H
и каждый раз мотив другой  но я давно привык
  D          H       D
я так уже привык мой друг
моя душа устало пьет разлуки горький мед
и верит только лишь в одно и помнит об одном
и знает лишь одну печаль
    F          B     D           Gm
стеклянная звезда сгорела без следа
    F          B    D             Gm
стеклянная звезда устала ждать дождя
   D            H       D
твоих негорьких слез любви
куда спешат твои уста усталые крыла
роняя с перьев на песок как чистую росу
негорькую слезу любви
когда спешат твои глаза увидель светлый миг
и слиться с ним на долгий век восходит надо мной
стеклянная звезда надежд
негорькая слеза застыла в небесах
негорькая слеза одна давно ждала
стеклянную звезду надежд
(Заключение:)
E |---------|-----|---------|-----|---------|-------|-------|-----|
A |-0-1-3---|-----|---------|-----|---------|-------|-------|-----|
D |-------0-|-----|-4-------|-----|---------|-------|-------|-----|
G |---------|-----|---0-2-3-|-----|-2-3-2-2-|-------|---2-3-|-----|
B |---------|-----|---------|-----|-----3-3-|---3-3-|-------|-----|
e |---------|-----|---------|-----|---------|---2-2-|-------|-----|


Текст, аккорды и табулатура для песни "Негорькая слеза", исполняет "Ю-Питер".
Используемые в песне аккорды можно найти в разделе Как брать аккорды. Аккорды для шестиструнной гитары. Другие песни можно найти на нашем сайте, воспользовавшись алфавитным указателем вверху страницы.


Слушать онлайн Негорькая слеза


Ю-ПитерНегорькая слеза на Яндекс.Музыке


 
Ошибка в тексте? Выделите ошибку и нажмите Ctrl+Enter