Вступление (*/ - это пауза-восьмушка):
                                                     
    Gm
e||----6--6--6--6--3--3--3--|--3--------------------|
H||-------------------------|-----3--3--3--3--------|
G||-*/----------------------|-----------------------|
D||-------------------------|-----------------------|
A||-------------------------|-----------------------|
E||-------------------------|-----------------------|
                                                  
  Eb 
|----6--6--6--6--3--3--3--|--3--------------------|
|-------------------------|-----4--4--4--4--------|
|-*/----------------------|-----------------------|
|-------------------------|-----------------------|
|-------------------------|-----------------------|
|-------------------------|-----------------------|
                                                
  F7
|----8--8--8--8--5--5--5--|--5--------------------|
|-------------------------|-----6--6--6--6--------|
|-*/----------------------|-----------------------|
|-------------------------|-----------------------|
|-------------------------|-----------------------|
|-------------------------|-----------------------|
                                                     
  D7
|----8--8--8--8--5--5--5--|--5-----------------------|
|-------------------------|-----7--7--7--7--3--3--3--|
|-*/----------------------|--------------------------|
|-------------------------|--------------------------|
|-------------------------|--------------------------|
|-------------------------|--------------------------|
                                                      
  Gm
|-----6--6--6--6--3--3--3--|--3-----------------------|
|--3-----------------------|-----3--3--3--3-----------|
|--------------------------|-----------------3--3--3--|
|--------------------------|--------------------------|
|--------------------------|--------------------------|
|--------------------------|--------------------------|
                                                      
  Eb
|-----6--6--6--6--3--3--3--|--3-----------------------|
|--------------------------|-----4--4--4--4-----------|
|--3-----------------------|-----------------3--3--3--|
|--------------------------|--------------------------|
|--------------------------|--------------------------|
|--------------------------|--------------------------|
                                                      
  F7
|-----8--8--8--8--5--5--5--|--5-----------------------|
|--------------------------|-----6--6--6--6-----------|
|--2-----------------------|-----------------5--5--5--|
|--------------------------|--------------------------|
|--------------------------|--------------------------|
|--------------------------|--------------------------|
                                                       
  D7
|-----8--8--8--8--5--5--5--|--5-----------------------||
|--------------------------|-----7--7--7--7--3--3--3--||
|--5-----------------------|--------------------------||
|--------------------------|--------------------------||
|--------------------------|--------------------------||
|--------------------------|--------------------------||

 Gm         Eb       F7       D7
Девушка по городу шагает босиком,
Девушке дорогу уступает светофор.
  Cm       
Сверху улыбается воздушный постовой,
Девушка в ответ ему кивает головой.
  
А где-нибудь за городом идет весенний лед,
Девушке навстречу расступается народ.
Девушка - по Пушкинской на Лиговский в обход,
Следом по каналу проплывает пароход.

        Gm
А за окном мелькают дни,
           Eb
Они как взлетные огни -
        F7
Одни заметны с высоты,
        D7
Другие вовсе не видны.

А на дворе цветет весна,
Она в кого-то влюблена,
А этот кто-то за окном
Сидит и видит день за днем,

Как девушка по городу шагает босиком,
По скверам и по улицам порхает мотыльком.
Девушка ныряет через арку напролет,
Солнце пригревает, сердце девушки поет,

Припев > 2 раза

  Gm       Eb        F         D        
|--------------------------------------|
|----------10-8------------------------|
|--------7------10-8-----------7-----7-|
|-8----8-------------10---7-10-----7---|
|---10------------------8--------9-----|
|--------------------------------------|

  Gm       Eb         F         D        
|--------------------------------------|
|----------11-10-8--------------7------|
|--------7---------10------------------|
|-8----8--------------10---7-10----7/9-|
|---10-------------------8-------------|
|--------------------------------------|

  Cm
|---------------------------------------------|
|---------------------------------------------|
|-------8-------8-------11-------8-------8----|
|-10-10---10-10---10-10----10-10---10-10---10-|
|---------------------------------------------|
|---------------------------------------------|

  Cm
|---------------------------------------------|
|---------------------------------------------|
|-------8-------8-------11-------8-------8----|
|-10-10---10-10---10-10----10-10---10-10---10-|
|---------------------------------------------|
|---------------------------------------------|

Припев > 2 раза


Текст, аккорды и табулатура для песни "Девушка по городу", исполняет "Ю-Питер".
Используемые в песне аккорды можно найти в разделе Как брать аккорды. Аккорды для шестиструнной гитары. Другие песни можно найти на нашем сайте, воспользовавшись алфавитным указателем вверху страницы.


Слушать онлайн Девушка по городу


Ю-ПитерДевушка по городу на Яндекс.Музыке


 
Ошибка в тексте? Выделите ошибку и нажмите Ctrl+Enter