Summer Breeze : As recorded by Type O Negative on Bloody Kisses .Transcribed by Ruben Burton on May 10 2004 .
[email protected] (Kisses to Birgit) Played in Type O Tuning B-E-A-D-G-B .....
Crank it up !!!!

INTRO:
2X

B-----------------------------------------------------------------|
G-----------------------------------------------------------------|
D-----------------------------------------------------------------|
A----------5---2---0------------hammer-on-------------------------|
E---0--3-------------------3---2-3-2-0----------------------------|
B--------------------------------------------------2-3-4---2-3-4--|


B------------------------------------------------------------------------------|
G------------------------------------------------------------------------------|
D---------------------------------------------------------------------------5--|
A----------5---2---0------------hammer-on----------------------------5---------|
E---0--3-------------------3---2-3-2-0----------------------------------3------|
B--------------------------------------------------2-3-4---4-3-2---------------|

MAIN RIFF:

B---------------------------------------------------------------------------|
G-----------------------------7---7-----------------------------------------|
D---2--2-------5---5--------7---7----7---7---------2-xx-5-------5-----7/-8--|
A---2--2-------5---5--------5---5----7---7---------2-xx-5-------5-----7/-8--|
E---0--0-------3---3------------------5---5---------0-xx-3--3-3-3-----5/-6--|
B---------------------------------------------------------------------------|

B-----------------------------------------------------------------------------|
G-----------------------------7---7------------------------9------------7/-9--|
D---2--2-------5---5--------7---7----7---7---------2-x-9------------7/-9------|
A---2--2-------5---5--------5---5----7---7---------2-x-7------------5/-7------|
E---0--0-------3---3------------------5---5---------0-x-----0-0-0-------------|
B-----------------------------------------------------------------------------|


CHORUS: 2X
Pete Sings : Summer Breeze Makes me feel fine .....

B------muted---------------------------------------------------------------------------------------------------|
G----------------------------------------------------------------------------------------------9--------7-7/9--|
D----777777-----------------9999999--------------5-xx--5-/-7----2-2----------------2-9--------7-7/9------------|
A----777777-----------------9999999--------------5-xx--5-/-7----2-2----------------2-7--------5-5/7------------|
E----555555---5-4-5-6-----777777------7-6-5---3-xx--3-/-5----0-0-0-0-0-0-0-0-0---------------------------------|
B--------------------------------------------------------------------------------------------------------------|

INTRO:

B-----------------------------------------------------------------|
G-----------------------------------------------------------------|
D-----------------------------------------------------------------|
A----------5---2---0------------hammer-on-------------------------|
E---0--3-------------------3---2-3-2-0----------------------------|
B--------------------------------------------------2-3-4---2-3-4--|


B------------------------------------------------------------------------------|
G------------------------------------------------------------------------------|
D---------------------------------------------------------------------------5--|
A----------5---2---0------------hammer-on----------------------------5---------|
E---0--3-------------------3---2-3-2-0----------------------------------3------|
B--------------------------------------------------2-3-4---4-3-2---------------|


MAIN RIFF:

B---------------------------------------------------------------------------|
G-----------------------------7---7-----------------------------------------|
D---2--2-------5---5--------7---7----7---7---------2-xx-5-------5-----7/-8--|
A---2--2-------5---5--------5---5----7---7---------2-xx-5-------5-----7/-8--|
E---0--0-------3---3------------------5---5---------0-xx-3--3-3-3-----5/-6--|
B---------------------------------------------------------------------------|

B-----------------------------------------------------------------------------|
G-----------------------------7---7------------------------9------------7/-9--|
D---2--2-------5---5--------7---7----7---7---------2-x-9------------7/-9------|
A---2--2-------5---5--------5---5----7---7---------2-x-7------------5/-7------|
E---0--0-------3---3------------------5---5---------0-x-----0-0-0-------------|
B-----------------------------------------------------------------------------|


CHORUS: 2X
Pete Sings : Summer Breeze Makes me feel fine .....

B------muted---------------------------------------------------------------------------------------------------|
G----------------------------------------------------------------------------------------------9--------7-7/9--|
D----777777-----------------9999999--------------5-xx--5-/-7----2-2----------------2-9--------7-7/9------------|
A----777777-----------------9999999--------------5-xx--5-/-7----2-2----------------2-7--------5-5/7------------|
E----555555---5-4-5-6-----777777------7-6-5---3-xx--3-/-5----0-0-0-0-0-0-0-0-0---------------------------------|
B--------------------------------------------------------------------------------------------------------------|

BRIDGE : 4X
Pete sings : Sweet days of summer the jasmins in bloom ....
B----------------------------------------|
G---9-xx-5-------9-xx--------------------|
D---9-xx-5-------9-xx--5-7----7-8-7------|
A---7-xx-3-------7-xx--5-7----7-8-7------|
E--------------------------3-5----5-6-5--|
B----------------------------------------|

B-----12 counts each----------------------------------------------|
G----77777777777-----9999999999-----77777777777-----444444444444--|
D----77777777777-----9999999999-----77777777777-----444444444444--|
A----55555555555-----7777777777-----55555555555-----222222222222--|
E-----------------------------------------------------------------|
B-----------------------------------------------------------------|


MAIN RIFF:

B---------------------------------------------------------------------------|
G-----------------------------7---7-----------------------------------------|
D---2--2-------5---5--------7---7----7---7---------2-xx-5-------5-----7/-8--|
A---2--2-------5---5--------5---5----7---7---------2-xx-5-------5-----7/-8--|
E---0--0-------3---3------------------5---5---------0-xx-3--3-3-3-----5/-6--|
B---------------------------------------------------------------------------|

B-----------------------------------------------------------------------------|
G-----------------------------7---7------------------------9------------7/-9--|
D---2--2-------5---5--------7---7----7---7---------2-x-9------------7/-9------|
A---2--2-------5---5--------5---5----7---7---------2-x-7------------5/-7------|
E---0--0-------3---3------------------5---5---------0-x-----0-0-0-------------|
B-----------------------------------------------------------------------------|


CHORUS: 4X
Pete Sings : Summer Breeze Makes me feel fine .....till end .

B------muted---------------------------------------------------------------------------------------------------|
G----------------------------------------------------------------------------------------------9--------7-7/9--|
D----777777-----------------9999999--------------5-xx--5-/-7----2-2----------------2-9--------7-7/9------------|
A----777777-----------------9999999--------------5-xx--5-/-7----2-2----------------2-7--------5-5/7------------|
E----555555---5-4-5-6-----777777------7-6-5---3-xx--3-/-5----0-0-0-0-0-0-0-0-0---------------------------------|
B--------------------------------------------------------------------------------------------------------------|


Текст, аккорды и табулатура для песни "Summer Breeze", исполняет "Type O Negative".
Используемые в песне аккорды можно найти в разделе Как брать аккорды. Аккорды для шестиструнной гитары. Другие песни можно найти на нашем сайте, воспользовавшись алфавитным указателем вверху страницы.


 
Ошибка в тексте? Выделите ошибку и нажмите Ctrl+Enter