Song Title: We're not gonna take it
Artist: Twisted Sister
Album: Stay Hungry (1984)
Tabbed by:  kjs ([email protected])
Notes: I wanted to play the song, but was disappointed to
       not find the correct tab for the Twisted Sister (original)
       version.  It is a litte tricky to hear the bass line under the
       two guitars, but wait for the instrumental part of the song
       and you can hear it pretty well.  The bass line of the 
       Bif|Naked remake just hits the root notes of the chords 
       (maybe they read the old tab, :-) Enjoy! 6/7/00




G:|-------------------------------|-------------------------------|-
D:|-------------------------------|-------------------------------|-
A:|--7----7-6----6-4----4-2----2--|--7----7-6----6-4----4-2----2--|-
E:|-------------------------------|-------------------------------|-




G:|-------------------------------|-------------------------------|-
D:|--------------------------4----|--------------------------2----|-
A:|------------------------6---6--|----------------------2-4---4--|-
E:|--0---0---0---0---7---7--------|--0---0---0---0--5--5----------|-




G:|-------------------------------|-------------------------------|-
D:|--------------------------4----|-------------------------------|-
A:|------------------------6---6--|--------------4----------------|-
E:|--0---0---0---0---7---7--------|--0---0---0-------7-7-7-7-7-7--|-




G:|-------------------------------|-------------------------------|-
D:|--------------------------4----|--------------------------2----|-
A:|----------------------4-6---6--|----------------------2-4---4--|-
E:|--0---0---0---0--7--7----------|--0---0---0---0--5--5----------|-



G:|-------------------------------|-------------------------------|-
D:|--------------------------4----|-------------------------------|-
A:|----------------------4-6---6--|--------------4----------------|-
E:|--0---0---0---0--7--7----------|--0---0---0-------7-7-7-7-7-7--|-


[Refrain]

G:|-------------------------------|-------------------------------|-
D:|------------------------4------|--------------------4-5-4-2----|-
A:|-----------4--------4-6---6----|--------------0--0-------------|-
E:|--0--0--4-----7--7-------------|--0--0--4--4-------------------|-



G:|-------------------------------|-------------------------------|-
D:|------------------------4------|-------------------------------|-
A:|-----------4--------4-6---6----|--7----7-6----6-4----4-2----2--|-
E:|--0--0--4-----7--7-------------|-------------------------------|-

[End Refrain]


G:|-------------------------------|-------------------------------|-
D:|--------------------------4----|--------------------------2----|-
A:|----------------------4-6---6--|----------------------2-4---4--|-
E:|--0---0---0---0--7--7----------|--0---0---0---0--5--5----------|-



G:|-------------------------------|-------------------------------|-
D:|--------------------------4----|-------------------------------|-
A:|----------------------4-6---6--|--------------4----------------|-
E:|--0---0---0---0--7--7----------|--0---0---4-------7-7-7-7-7-7--|-



G:|-------------------------------|-------------------------------|-
D:|--------------------------4----|--------------------------2----|-
A:|----------------------4-6---6--|------------------------4---4--|-
E:|--0---0---0--0--7--7-----------|--0---0---0---0---5---5--------|-



G:|-------------------------------|-------------------------------|-
D:|--------------------------4----|-------------------------------|-
A:|----------------------4-6---6--|--7----7-6----6-4----4-2----2--|-
E:|--0---0---0---0--7--7----------|-------------------------------|-



G:|-------------------------------|-------------------------------|-
D:|-------------------------------|-------------------------------|-
A:|5-5-5-5-5-5-5-5-4-4-4-4-2-2-2-2|5-5-5-5-5-5-5-5-4-4-4-4-2-2-2-2|-
E:|-------------------------------|-------------------------------|-



G:|-------------------------------|-------------------------------|-
D:|-------------------------------|--------------2-2-2-2-2-2-2----|-
A:|-------------1----1------------|--2----2-----------------------|-
E:|--0----0-----------------------|-------------------------------|-


[Refrain]

G:|-------------------------------|-------------------------------|-
D:|------------------------4------|--------------------4-5-4-2----|-
A:|-----------4--------4-6---6----|--------------0--0-------------|-
E:|--0--0--4-----7--7-------------|--0--0--4--4-------------------|-



G:|-------------------------------|-------------------------------|-
D:|------------------------4------|-------------------------------|-
A:|-----------4--------4-6---6----|----------4--------------------|-
E:|--0--0--4-----7--7-------------|--0--0-4------7-7-7-7-7-7------|-



G:|-------------------------------|-------------------------------|-
D:|------------------------4------|--------------------4-5-4-2----|-
A:|-----------4--------4-6---6----|--------------0--0-------------|-
E:|--0--0--4-----7--7-------------|--0--0--4--4-------------------|-



G:|-------------------------------|-------------------------------|-
D:|------------------------4------|-------------------------------|-
A:|-----------4--------4-6---6----|--7----7-6----6-4----4-2----2--|-
E:|--0--0--4-----7--7-------------|-------------------------------|-


(Guitar solos)

G:|-------------------------------|-------------------------------|-
D:|--------------------------4----|--------------------------2----|-
A:|----------------------4-6---6--|----------------------2-4---4--|-
E:|--0---0---0---0--7--7----------|--0---0---0---0--5--5----------|-

G:|-------------------------------|-------------------------------|-
D:|--------------------------4----|-------------------------------|-
A:|----------------------4-6---6--|------------2--4--2-2-2-2-2-2-2|-
E:|--0---0---0---0--7--7----------|--0--0--0-4--------------------|-

(Guitar duet)

G:|-------------------------------|-------------------------------|-
D:|--------------------------4----|--------------------------2----|-
A:|----------------------4-6---6--|----------------------2-4---4--|-
E:|--0---0---0---0--7--7----------|--0---0---0---0--5--5----------|-

G:|-------------------------------|-------------------------------|-
D:|--------------------------4----|-------------------------------|-
A:|----------------------4-6---6--|--7----7-6----6-4----4-2----2--|-
E:|--0---0---0---0--7--7----------|-------------------------------|-



G:|-------------------------------|-------------------------------|-
D:|-------------------------------|-------------------------------|-
A:|5-5-5-5-5-5-5-5-4-4-4-4-2-2-2-2|5-5-5-5-5-5-5-5-4-4-4-4-2-2-2-2|-
E:|-------------------------------|-------------------------------|-


{to refrain}


Текст, аккорды и табулатура для песни "Were Not Gonna Take It", исполняет "Twisted Sister".
Используемые в песне аккорды можно найти в разделе Как брать аккорды. Аккорды для шестиструнной гитары. Другие песни можно найти на нашем сайте, воспользовавшись алфавитным указателем вверху страницы.


 
Ошибка в тексте? Выделите ошибку и нажмите Ctrl+Enter