Tsunami Bomb - Top 40 Hit
visit the tsunami bomb fansite www.tpdigital.co.uk

Intro:
e|-----|------5h6p5---5h6p5---5h6p5--|-5h6p5---|
B|-----|------------5-------5--------|-------5-|
G|--8~-|-----------------------------|---------|
D|--7~-|--7-7------------------------|---------|
A|--7~-|--7-7------------------------|---------|
E|--5~-|--5-5------------------------|---------|
[-Repeat this^ 4 times and end like ^-]

Verse Riff: 
(played twice-after the second time,
skip to the Chorus instead of hitting the beginning 
chord (A) again.)

e|----|--------------------------------|
B|----|--------------------------------|
G|----|--888----888----88--------------|
D|-7~-|--888-7--888-7--88-7-5-5-5-5-55-|
A|-7~-|--666-7--666-7--66-7-5-5-5-5-55-|
E|-5~-|------5------5-----5-3-3-3-3-33-|
[ ^Starts and ends with this chord (A)]


Chorus Riff: 
(play it 5 times, the last one 
ends on the (A) chord and the hammer-on and pull
offs at the end of the riff)

e|----------------------|-----5h6p5---|
B|-------(5)------------|-----------5-|
G|-------(5)------------|-------------|
D|--7-77—(5)-5-55--8-88-|-7-7---------|
A|--7-77-(5)-5-55--8-88-|-7-7---------|
E|--5-55-----3-33--6-66-|-5-5---------|
[(#)= Harmonics* on that fret]

*The harmonics aren't necessary, but they ARE 
in the song, and itsounds cool with them in it. 

Repeat the Verse Riff and then the Chorus Riff 
again, then comesthe Interlude, where the solo 
is played behind these chords. I haven't tabbed 
the solo because it's hard to make out with the 
effects behind it, butI'll try to get it later.


Interlude: (starts with that G chord played 
several times, but onlywhen the riff begins, 
when you repeat it, omit that chord.
Play it 4 times I believe.)

e|---|--------------------------------|
B|---|--------------------------------|
G|---|--8----------8----------8---5---|
D|-5-|--8-7-7-7-7--8-7-7-7-7--8-8-5-5-|
A|-5-|--6-7-7-7-7--6-7-7-7-7--6-8-3-5-|
E|-3-|----5-5-5-5----5-5-5-5----5---3-|


(Interlude continued)
e|------------------------------|-----|
B|------------------------------|-----|
G|--8----------8----------8---5-|-----|
D|--8-7-7-7-7--8-7-7-7-7--8-8-5-|--5--|
A|--6-7-7-7-7--6-7-7-7-7--6-8-3-|--5--|
E|----5-5-5-5----5-5-5-5----5---|--3--|
[After the 4th time, finish on this ^ chord]

Then it goes into the Chorus, then the Verse,
and then theChorus again. It finishes on this
chord-

e|------|
B|------|
G|--8--|
D|--7--|
A|--7--|
E|--5--|


Текст, аккорды и табулатура для песни "Top 40 Hit", исполняет "Tsunami Bomb".
Используемые в песне аккорды можно найти в разделе Как брать аккорды. Аккорды для шестиструнной гитары. Другие песни можно найти на нашем сайте, воспользовавшись алфавитным указателем вверху страницы.


 
Ошибка в тексте? Выделите ошибку и нажмите Ctrl+Enter